Acordes y tablaturas para guitarra

Acordes y Tablaturas
Usuario: Password:

Buscar:
Acordes y Tablaturas >> Letra M >> Acordes de METALLICA >> Nothing Else Matters (6)
Tablatura de Nothing Else Matters, METALLICA

Nothing Else Matters (6)

METALLICA






Intro 
6/8 time 
Eb-------0-----|-------0-----|-------0-----|-------0---7-| 
Bb-----0---0---|-----0---0---|-----0---0---|-----0---0---| 
Gb---0-------0-|---0-------0-|---0-------0-|---0---------| 
Db-------------|-------------|-------------|-------------| 
Ab-------------|-------------|-------------|-------------| 
Eb-0-----------|-0-----------|-0-----------|-0-----------| 
P (9/8 time) H P S P S 
Eb-7-----------7^0---------|---------7---8---7^85---7-5-/0------| 
Bb---------0-------0-------|---------0---0-----------0-------5---| 
Gb-----0---------------0---|-----0-------------------------------| 
Db-------------------------|-------------------------------------| 
Ab-------------------------|-------------------------------------| 
Eb-0-----------------------|-0-----------------------------------| 
P 
Eb-------------2^0---------|-------------0---0---0---| 
Bb-5-------5-------5-------|---------5-------5---5---| 
Gb-----5---------------5---|-----5-----------5---5---| 
Db-------------------------|-------------------------| 
Ab-0-----------------------|-0---------------0---2---| 
Eb-------------------------|-------------------------| 
P H P P H 
Eb-0-----------3^0-----0---|-0----------0^5^0---------| 
Bb-5-------5-------5---5---|-7---7-5-7--------7^0-5^0-| 
Gb-5-----5---5-------5-5---|-7------------------------| 
Db-------------------------|--------------------------| 
Ab-3---3---------------3---|-5------------------------| 
Eb-------------------------|--------------------------| 
<.NH.> 
Eb-------12----|-------0-----|-------0-----|-------0-----| 
Bb-----12--0---|-----0---0---|-----0---0---|-----0---0---| 
Gb---12------0-|---0-------0-|---0-------0-|---0-------0-| 
Db-------------|-------------|-------------|-------------| 
Ab-------------|-------------|-------------|-------------| 
Eb-0-----------|-0-----------|-0-----------|-0-----------| 
upstroke 
Eb-------------7---7-------|-------------|-------------7-----------| 
Bb-------------8---8-------|-----7-----5-|-------------8-----------| 
Gb-----------9-----9-------|-----7-----5-|-----------9-------------| 
Db---------9---------------|---7-----5---|---------9---------------| 
Ab-------7-----------------|-5-----3-----|-------7-----------------| 
Eb-0-----------------------|-------------|-0-----------------------| 

Eb-------------|----------7-----7--------|-----5-----------3-------| 
Bb-----7-----5-|----------------8--------|-------7-----------5-----| 
Gb-----7-----5-|-------------9-----------|---------7-----------5---| 
Db---7-----5---|-------------------------|-------------------------| 
Ab-5-----3-----|-------7-----------------|-5-----------3-----------| 
Eb-------------|-0-----------------------|-------------------------| 

Eb-----3-------------------|-------0-----(0------)|-------0-----| 
Bb-------3---------5-4-----|-----0---0---(-0-----)|-----0---0---| 
Gb---------4---------------|---0-------0-(--0----)|---0-------0-| 
Db-------------------------|-------------(---2---)|-------------| 
Ab-------------2-----------|-------------(----2--)|-------------| 
Eb-3-----------------------|-0-----------(-----0-)|-0-----------| 

Main guitar part : 
So close,no matter how far...... 
Eb-------------3----0---|-2---2-2-2-3--0--0-0-----| 
Bb---------0----------0-|-3---3-3-3-3--3--3-3-----| 
Gb-----0----------0-----|-2---2-2-2-2--0--0-0-----| repeat 2X 
Db----------------------|-0---0-0-0-0--2--2-2-----| 
Ab----------------------|--------------3--3-3-----| 
Eb-0--------------------|---------------------3-2-| 
Forever trusting who we are............and nothing else 
matters 
Eb-------------3----0---|-2---2-2-2-3--0--0-0-----------3--2------2---- 
Bb---------0----------0-|-3---3-3-3-3--3--3-3-----------3--0--------0-- 
Gb-----0----------0-----|-2---2-2-2-2--0--0-0---------0----2----------- 
Db----------------------|-0---0-0-0-0--2--2-2--------------1----1------ 
Ab----------------------|--------------3--3-3--------------2--2-------- 
Eb-0--------------------|---------------------0-2-3-------------------- 

Chorus guitar part 
Never cared for what they do........ 
Eb-0-----0-----|-2-----2-2-2-3---2--0--2-| 
Bb-1-----2-----|-3-----3-3-3-3---3--3--3-| 
Gb-0-----2-----|-2-----2-2-2-2---2--2--2-| 
Db-2-----2-----|-0-----0-0-0-0---0--0--0-| 
Ab-3-----0-----|-------------------------| 
Eb-------------|-------------------------| 

Eb-0-----0-----|-2-----2-2-2-3---2--0--2-| 
Bb-1-----2-----|-3-----3-3-3-3---3--3--3-| 
Gb-0-----2-----|-2-----2-2-2-2---2--2--2-| 
Db-2-----2-----|-0-----0-0-0-0---0--0--0-| 
Ab-3-----0-----|-------------------------| 
Eb-------------|-------------------------| 

Eb-0-----0-----|-2-----2-2-2-0-----------| 
Bb-1-----2-----|-3-----3-3-3-0-----------| 
Gb-0-----2-----|-2-----2-2-2-0-----------| 
Db-2-----2-----|-0-----0-0-0-2-----------| 
Ab-3-----0-----|-------------2-----------| 
Eb-------------|-------------0-----------| 

Interlude 
|-12------14---|-15-------17---|-8------8------|-------8--------| 
|---12------12-|---12-------12-|---5------5----|----5-----5-----| 
|--------------|---------------|-----5------5--|-5----------5--| 
|--------------|---------------|---------------|----------------| 
|--------------|---------------|--------------0|----------------| 
|--------------|---------------|---------------|----------------| 

|-0--------0---|-0^2--------0--|-0--0~~~~0~~~~~|--------0-------| 
|----1-------1-|-----3-------3-|-12-12~~~12~~~~|------0---0-----| 
|-------2------|--------2------|---------------|----0-------0---| 
|--------------|---------------|---------------|----------------| 
|--------------|---------------|---------------|----------------| 
|--------------|---------------|---------------|-0--------------| 

|-12------14---|-15-------17---|-8------8------|-8-----8--------| 
|---12------12-|---12-------12-|---5--------5--|---5-----5------| 
|--------------|---------------|-----5----5---5|-----5-----5----| 
|--------------|---------------|---------------|----------------| 
|--------------|---------------|---------------|----------------| 
|--------------|---------------|---------------|----------------| 

|-0--------0---|-0^2--------0--|-0--0~~~~0~~~~~|--------0---------| 
|----1-------1-|-----3-------3-|-12-12~~~12~~~~|------0---0-------| 
|-------2------|--------2------|---------------|----0-------0-----| 
|--------------|---------------|---------------|------------------| 
|--------------|---------------|---------------|------------------| 
|--------------|---------------|---------------|-0------------3-2-| 

Interlude solo * * 
Eb|--------3-----3--5--5(7)5--5-----3--5---10--7--6(8)6-- 
Bb|--3--5-----5------------------5----------------------- 

Eb|--10--6(8)6---10--6(8)6---10--6(8)6---10--6(8)6---3-0- 

*=bend and release 

GOTO MAIN GUITAR PART 

Guitar solo : 
E5 E5(VII) | D5(V) C5(III) 
E5 E5(VII) | D5(V) C5(III) 
E5 E5(VII) | D5(V) C5(III) | G5(III) B5(II) | E5 

B B R V V 
Eb---------------------------|-------------------------------------| 
Bb-15------15----------------|-------------------------------------| 
Gb-14(16)--14(16)14-12--14-12|-11-12-11----11-------------12-14-12-| 
Db---------------------------|----------14----12-14----------------| 
Ab---------------------------|-------------------------------------| 
Eb---------------------------|-------------------------------------| 
B B B 
Eb-------12-------12---------------------------hold bend-->--------| 
Gb----12-------12----15^14^12-(approx.8x )--15(17)-15-15-15--------| 
Gb-14(16)---14(16)---------------------|---------------------------| 
Db-------------------------------------|---------------------------| 
Ab-------------------------------------|---------------------------| 
Eb-------------------------------------|---------------------------| 
release bend 
Eb-15(17)--15---14-15-|----15-14----14-15-14-12|-------------------- 
Bb--------------------|-12-------12------------|-15-14-12----------- 
Gb--------------------|------------------------|-----------12-14-12- 
Db--------------------|------------------------|-------------------- 
Ab--------------------|------------------------|-------------------- 
Eb--------------------|------------------------|-------------------- 
B R B B R P B 
Eb-------------------------|-12--------------------hold----->-----release 
Bb----------------------12-|-------12-15(17)15--12^15(17)-15-15-15-15-15- 
Gb-14(16)14-12----12-14(16)|-------------------------------|------------- 
Db-------------14----------|-------------------------------|------------- 
Ab-------------------------|-------------------------------|------------- 
Eb-------------------------|-------------------------------|------------- 
H P S H P 
Eb----------------------------------- 
Bb-12^15^12~~~~~~\\\7--5^7^5~~~~~~ 
Gb----------------------------------- 
Db----------------------------------- 
Ab----------------------------------- 
Eb----------------------------------- 

The end : 
E-------0-----|-------0---7-|-7-----------7^0---------| 
B-----0---0---|-----0---0---|---------0-------0-------| 
G---0-------0-|---0---------|-----0---------------0---| 
D-------------|-------------|-------------------------| 
A-------------|-------------|-------------------------| 
E-0-----------|-0-----------|-0-----------------------| 

E---------7---8---7^85---7-5-/0--0--0-| 
B---------0---0-----------0------------| 
G-----0--------------------------------| repeat 
D--------------------------------------| 
A--------------------------------------| 
E-0----------------------------------0-| 

Intro
|-------0------|   |-------0---7-|-7-----7h0-----|-----7--8--7h8h7/5--7-5/2---|-------2h0-----|------0---| 
|-----0---0----|   |-----0---0---|---0---0---0---|-0---0--0-----------0-----5-|-5---5-----5---|----5-----| 
|---0-------0--|   |---0---------|-----0-------0-|---0------------------------|---5---------5-|---5------| 
|--------------|   |-------------|---------------|----------------------------|---------------|----------| 
|--------------|   |-------------|---------------|----------------------------|-0-------------|-0--------|  
|-0------------|X3 |-0-----------|-0-------------|-0--------------------------|---------------|----------| 


|-0-0-0-|---------3h0-----|-0-0-|---------0h5p0---------|-----------<12>------| |-------0------|  
|-5-5-5-|-----5-------5---|-5-7-|-----7---------7p0-0h5-|-------<12>-----0----| |-----0---0----|   
|-5-5-5-|---5---5-------5-|-5-7-|---7---7---------------|---<12>-----------0--| |---0-------0--| 
|-------|-----------------|-----|-----------------------|---------------------| |--------------|     
|-0-2-3-|-3---------------|-3-5-|-5---------------------|---------------------| |--------------| 
|-------|-----------------|-----|-----------------------|-0-------------------| |-0------------|X3


|----------7~-|---------------|   |-----------------|-----------0--------|-----------0------| 
|----------8~-|------7-----5--|   |-------3---------|--------0-----0-----|--------0-----0---| 
|--------9----|------7-----5--|   |-------4------4--|-----0-----------0--|-----0----------0-| 
|------9------|----7-----5----|   |-----5------4----|--------------------|------------------| 
|----7--------|--5-----3------|   |----------2------|--------------------|------------------| 
|-0-----------|---------------|x3 |--3--------------|--0-----------------|--0---------------|




oo:58 zona hablada 
Verso1)

       So close no matter how far                 Couldn't be much more from the heart
|------3---0-----|--2----3----|-0----------|-------3---0-----|--2---------------------| 
|-----0------0---|--------3---|----3-------|-----0-------0---| ------3-----3----3-----| 
|---0----0-----0-|----------0-|------0-----|---0------0----0-|---------2h0----0-------| 
|----------------|--0--0------|------------|-----------------|--0--0------------------| 
|----------------|------------|-3----------|-----------------|-------------3----------| 
|-0--------------|------------|--------3-2-|-0---------------|--------------------3-2-| 



         Forever trusting who we are              And nothing else matters
|--------3---0-----|--2----3-----3------|------3--2----2----|--0--------0--------|-----------0---------| 
|------0-------0---|---------3-----3----|------3--0------0--|--------0-----0-----|--------0-----0------| 
|----0-----0-----0-|-----------0-----0--|---0-----2---------|-----0-----------0--|-----0---------------| 
|------------------|--0--0--------------|-------------------|--------------------|---------------------| 
|------------------|-------------3------|---------2--2------|--------------------|---------------------| 
|--0---------------|--------------------|-3-----------------|--0-----------------|--0--------------3-2-|






   Verso 2 )
                 
       Never opened myself this wa                 Life is ours, we live it our way
|------3---0-----|--2----3----|-0----------|-------3---0-----|--2---------------------| 
|-----0------0---|--------3---|----3-------|-----0-------0---| ------3-----3----3-----| 
|---0----0-----0-|----------0-|------0-----|---0------0----0-|---------2h0----0-------| 
|----------------|--0--0------|------------|-----------------|--0--0------------------| 
|----------------|------------|-3----------|-----------------|-------------3----------| 
|-0--------------|------------|--------3-2-|-0---------------|--------------------3-2-| 

         All these words i don't just             say And nothing else matters
|--------3---0-----|--2----3-----3------|------3--2----2----|--0--------0--------|-----------0---------| 
|------0-------0---|---------3-----3----|------3--0------0--|--------0-----0-----|--------0-----0------| 
|----0-----0-----0-|-----------0-----0--|---0-----2---------|-----0-----------0--|-----0---------------| 
|------------------|--0--0--------------|-------------------|--------------------|---------------------| 
|------------------|-------------3------|---------2--2------|--------------------|---------------------| 
|--0---------------|--------------------|-3-----------------|--0-----------------|--0--------------3-2-|
Verso 3
       Trust I seek and I find in you              Every day for us something new
|------3---0-----|--2----3----|-0----------|-------3---0-----|--2---------------------| 
|-----0------0---|--------3---|----3-------|-----0-------0---| ------3-----3----3-----| 
|---0----0-----0-|----------0-|------0-----|---0------0----0-|---------2h0----0-------| 
|----------------|--0--0------|------------|-----------------|--0--0------------------| 
|----------------|------------|-3----------|-----------------|-------------3----------| 
|-0--------------|------------|--------3-2-|-0---------------|--------------------3-2-| 

         Open mind for a diffrent view	        And nothing else matters
|--------3---0-----|--2----3-----3------|------3--2----2----|--0--------0--------| 
|------0-------0---|---------3-----3----|------3--0------0--|--------0-----0-----| 
|----0-----0-----0-|-----------0-----0--|---0-----2---------|-----0-----------0--|
|------------------|--0--0--------------|-------------------|--------------------| 
|------------------|-------------3------|---------2--2------|--------------------|
|--0---------------|--------------------|-3-----------------|--0-----------------|



coro: 02:04   Coro:


                    Never cared                            Never cared for         And I know
                    for what do                                          what they know
1 |--0---0--| --2---2--2-3-2--0--2-|--0------0------|--2---2--2-3-2--0--2-|--0--0--2-0---||------0----||------0-
2 |--1---2--| --3---3--3-3-3--3--3-|--1------2------|--3---3--3-3-3--3--3-|--1--2--3-0---||----0---0--||----0---0---
3 |--0---2--| --2---2--2-2-2--2--2-|--0------2------|--2---2--2-2-2--2--2-|--0--2--2-0---||--0-------0||--0-------0-
4 |--2---2--| --0---0--0-0-0--0--0-|--2------2------|--0---0--0-0-0--0--0-|--2--2--0-2---||-----------||--------
5 |--3---0--| ---------------------|--3------0------|---------------------|--3--0--0-2---||-----------||--------
6 |---------| ---------------------|----------------|---------------------|----------0---||0----------||0------- 




02:23    Verso 1
       So close no matter how far                 Couldn't be much more from the heart
|------3---0-----|--2----3----|-0----------|-------3---0-----|--2---------------------| 
|-----0------0---|--------3---|----3-------|-----0-------0---| ------3-----3----3-----| 
|---0----0-----0-|----------0-|------0-----|---0------0----0-|---------2h0----0-------| 
|----------------|--0--0------|------------|-----------------|--0--0------------------| 
|----------------|------------|-3----------|-----------------|-------------3----------| 
|-0--------------|------------|--------3-2-|-0---------------|--------------------3-2-| 



         Forever trusting who we are              And nothing else matters
|--------3---0-----|--2----3-----3------|------3--2----2----|--0--------0--------|-----------0---------| 
|------0-------0---|---------3-----3----|------3--0------0--|--------0-----0-----|--------0-----0------| 
|----0-----0-----0-|-----------0-----0--|---0-----2---------|-----0-----------0--|-----0---------------| 
|------------------|--0--0--------------|-------------------|--------------------|---------------------| 
|------------------|-------------3------|---------2--2------|--------------------|---------------------| 
|--0---------------|--------------------|-3-----------------|--0-----------------|--0--------------3-2-|
02:44 Coro:
                    Never cared                            Never cared for         And I know
                    for what do                             what they know
1 |--0---0--| --2---2--2-3-2--0--2-|--0------0------|--2---2--2-3-2--0--2-|--0--0--2-0---||------0----||------0-----
2 |--1---2--| --3---3--3-3-3--3--3-|--1------2------|--3---3--3-3-3--3--3-|--1--2--3-0---||----0---0--||----0---0---
3 |--0---2--| --2---2--2-2-2--2--2-|--0------2------|--2---2--2-2-2--2--2-|--0--2--2-0---||--0-------0||--0-------0-
4 |--2---2--| --0---0--0-0-0--0--0-|--2------2------|--0---0--0-0-0--0--0-|--2--2--0-2---||-----------||------------
5 |--3---0--| ---------------------|--3------0------|---------------------|--3--0--0-2---||-----------||------------
6 |---------| ---------------------|----------------|---------------------|----------0---||0----------||0-----------












03:02    (guitarra 2)  
1 |--12----14----|-15----17---|--8-----8------------8-----|-0------0--|--0-----0---|--0-7-7----7h0----|------0--------| 
2 |-----12----12-|---12----12-|----5-----5--------5---5---|---1-----1-|---3-----3--|--------0------0--|----0---0------| 
3 |--------------|------------|------5-----5----5-------5-|-----0-----|-----2------|----------------0-|---0-----------| 
4 |--------------|------------|---------------------------|-----------|------------|------------------|---------------| 
5 |--------------|------------|---------------0-----------|-----------|------------|------------------|---------------| 
6 |--------------|------------|---------------------------|-----------|------------|------------------|-0---------2-3-| 
  
   (guitarra 1)
  |--15------17--|-19----20-----|-12--------|--11/12--------|--12/14--------|-----------------| 
  |-----17-----17|---17-----17--|----13-----|--------13-----|--------15-----|----17----17-----| 
  |--------------|--------------|-------12--|-----------14--|----------14---|-16----------16--| 
  |--------------|--------------|-----------|---------------|---------------|-----------------| 
  |--------------|--------------|-----------|---------------|---------------|-----------------| 
  |--------------|--------------|-----------|---------------|---------------|-----------------| 
 (guitarra 2)  
  |15-----17--|19----20---|12-------|11/12-------|--------------------------------------------|----------------------------
  |---17----17|--17-----17|---13----|------13----|-----------------------------15-------------|-15--15--15-----------------
  |-----------|-----------|------12-|---------14-|-------12-12h14-------12-14-14b16r14p12-12--|-14--14--14r-p12------------
  |-----------|-----------|---------|------------|12-14----------12-14----------------------14|----------------14p12?12/14-17-14-
  |-----------|-----------|---------|------------|--------------------------------------------|----------------------------
  |-----------|-----------|---------|------------|--------------------------------------------|----------------------------
  (guitarra 1)
1 |--12----14----|-15----17---|--8-----8------------8-----|-0------0--|--0-----0---|--0-7-7----7h0----|------0--------| 
2 |-----12----12-|---12----12-|----5-----5--------5---5---|---1-----1-|---3-----3--|--------0------0--|----0---0------| 
3 |--------------|------------|------5-----5----5-------5-|-----0-----|-----2------|----------------0-|---0-----------| 
4 |--------------|------------|---------------------------|-----------|------------|------------------|---------------| 
5 |--------------|------------|---------------0-----------|-----------|------------|------------------|---------------| 
6 |--------------|------------|---------------------------|-----------|------------|------------------|-0---------2-3-|
03:44  Verso 2
       Never opened myself this wa                 Life is ours, we live it our way
|------3---0-----|--2----3----|-0----------|-------3---0-----|--2---------------------| 
|-----0------0---|--------3---|----3-------|-----0-------0---| ------3-----3----3-----| 
|---0----0-----0-|----------0-|------0-----|---0------0----0-|---------2h0----0-------| 
|----------------|--0--0------|------------|-----------------|--0--0------------------| 
|----------------|------------|-3----------|-----------------|-------------3----------| 
|-0--------------|------------|--------3-2-|-0---------------|--------------------3-2-| 

         All these words i don't just say      And nothing else matters
|--------3---0-----|--2----3-----3------|------3--2----2----|--0--------0--------|-----------0---------| 
|------0-------0---|---------3-----3----|------3--0------0--|--------0-----0-----|--------0-----0------| 
|----0-----0-----0-|-----------0-----0--|---0-----2---------|-----0-----------0--|-----0---------------| 
|------------------|--0--0--------------|-------------------|--------------------|---------------------| 
|------------------|-------------3------|---------2--2------|--------------------|---------------------| 
|--0---------------|--------------------|-3-----------------|--0-----------------|--0--------------3-2-|
 Verso3
       Trust I seek and I find in you              Every day for us something new
|------3---0-----|--2----3----|-0----------|-------3---0-----|--2---------------------| 
|-----0------0---|--------3---|----3-------|-----0-------0---| ------3-----3----3-----| 
|---0----0-----0-|----------0-|------0-----|---0------0----0-|---------2h0----0-------| 
|----------------|--0--0------|------------|-----------------|--0--0------------------| 
|----------------|------------|-3----------|-----------------|-------------3----------| 
|-0--------------|------------|--------3-2-|-0---------------|--------------------3-2-| 

         Open mind for a diffrent view	        And nothing else matters
|--------3---0-----|--2----3-----3------|------3--2----2----|--0--------0--------| 
|------0-------0---|---------3-----3----|------3--0------0--|--------0-----0-----| 
|----0-----0-----0-|-----------0-----0--|---0-----2---------|-----0-----------0--|
|------------------|--0--0--------------|-------------------|--------------------| 
|------------------|-------------3------|---------2--2------|--------------------|
|--0---------------|--------------------|-3-----------------|--0-----------------|
Coro:

04:24
                    Never cared                            Never cared 
                    for what they say                     for games they play
1 |--0---0--| --2---2--2-3-2--0--2-|--0------0------|--2---2--2-3-2--0--2-|
2 |--1---2--| --3---3--3-3-3--3--3-|--1------2------|--3---3--3-3-3--3--3-|
3 |--0---2--| --2---2--2-2-2--2--2-|--0------2------|--2---2--2-2-2--2--2-| 
4 |--2---2--| --0---0--0-0-0--0--0-|--2------2------|--0---0--0-0-0--0--0-| 
5 |--3---0--| ---------------------|--3------0------|---------------------|
6 |---------| ---------------------|----------------|---------------------|

                Never cared                             Never cared            And I know
                 for what do                            for what they
1 |0---0| --2---2--2-3-2--0--2-|--0------0------|--2---2--2-3-2--0--2-|--0--0--2-0---||-------0------||-------0-----
2 |1---2| --3---3--3-3-3--3--3-|--1------2------|--3---3--3-3-3--3--3-|--1--2--3-0---||-----0---0----||-----0---0---
3 |0---2| --2---2--2-2-2--2--2-|--0------2------|--2---2--2-2-2--2--2-|--0--2--2-0---||---0-------0--||---0-------0-
4 |2---2| --0---0--0-0-0--0--0-|--2------2------|--0---0--0-0-0--0--0-|--2--2--0-2---||--------------||---------
5 |3---0| ---------------------|--3------0------|---------------------|--3--0--0-2---||--------------||---------
6 |-----| ---------------------|----------------|---------------------|----------0---||-0------------||-0------- 










Solo:  guitarra  2
|---------------------|--------------------------------|-------12-------12-------------------------------------------| 
|-15------------------|--------------------------------|----12-------12----15h12----12---------------14?14b----------| 
|-14b--14r-12~--14-12-|-11h12h11----11--------12-14-12-|-14b------14b------------15----15p14p12b-----14?14b-13-12~---| 
|---------------------|----------14----12-14~----------|-----------------------------------------14------------------|  
|---------------------|--------------------------------|-------------------------------------------------------------|
|---------------------|--------------------------------|-------------------------------------------------------------| 
|15-14----15--14-15/17-17|15-14h15p14----15-14-----------
|------12----------------|------------12------12---------|
|------------------------|-----------------------12-14-12|
|------------------------|-------------------------------|

|---------------------------12-----------------------|------------
|15-----------------------12---15-15b17=r15p12--15b17|-12h14p12-7-5h7p5-|
|14b16-16pb14p12----12-14b---------------------------|------------
|----------------14----------------------------------|------------











(Esto se ace cuando la guitarra 2 esta tocando)   

       como kien dice esta es la guitarra 1
|------3---0-----|--2----3----|-0----------|-------3---0-----|--2---------------------| 
|-----0------0---|--------3---|----3-------|-----0-------0---| ------3-----3----3-----| 
|---0----0-----0-|----------0-|------0-----|---0------0----0-|---------2h0----0-------| 
|----------------|--0--0------|------------|-----------------|--0--0------------------| 
|----------------|------------|-3----------|-----------------|-------------3----------| 
|-0--------------|------------|--------3-2-|-0---------------|--------------------3-2-| 



|--------3---0-----|--2----3-----3------|------3--2----2----|  |--0--------0--------|
|------0-------0---|---------3-----3----|------3--0------0--|  |--------0-----0-----|
|----0-----0-----0-|-----------0-----0--|---0-----2---------|  |-----0-----------0--| x 4 veses
|------------------|--0--0--------------|-------------------|  |--------------------|
|------------------|-------------3------|---------2--2------|  |--------------------| 
|--0---------------|--------------------|-3-----------------|  |--0-----------------|




















      
       So close no matter how far                 Couldn't be much more from the heart
|------3---0-----|--2----3----|-0----------|-------3---0-----|--2---------------------| 
|-----0------0---|--------3---|----3-------|-----0-------0---| ------3-----3----3-----| 
|---0----0-----0-|----------0-|------0-----|---0------0----0-|---------2h0----0-------| 
|----------------|--0--0------|------------|-----------------|--0--0------------------| 
|----------------|------------|-3----------|-----------------|-------------3----------| 
|-0--------------|------------|--------3-2-|-0---------------|--------------------3-2-| 



         Forever trusting who we are              And nothing else matters
|--------3---0-----|--2----3-----3------|------3--2----2----|--0--------0--------|
|------0-------0---|---------3-----3----|------3--0------0--|--------0-----0-----| 
|----0-----0-----0-|-----------0-----0--|---0-----2---------|-----0-----------0--| 
|------------------|--0--0--------------|-------------------|--------------------|
|------------------|-------------3------|---------2--2------|--------------------| 
|--0---------------|--------------------|-3-----------------|--0-----------------|




















Outro:
|-------0---7-|-7-----7p0-----|-----7-8-7h8p75-|-7-53-0-|
|-----0---0---|---0-------0---|-----0-0---------|-0-------|
|---0---------|-----0-------0-|---0-------------|---------|
|-------------|---------------|-----------------|---------|
|-------------|---------------|-----------------|---------|
|-0-----------|-0-------------|-0---------------|---------|


|-0-----0-----|-------0---7-|-7-----7p0-----|-----7-8-7h8p75-|
|-----0---0---|-----0---0---|---0-------0---|-----0-0---------|
|---0-------0-|---0---------|-----0-------0-|---0-------------|
|-------------|-------------|---------------|-----------------|
|-------------|-------------|---------------|-----------------|
|-0-----------|-0-----------|-0-------------|-0---------------|


|-7-53-0-|-0-----0-----|-------0---7-|-7-----7p0-----|
|-0-------|-----0---0---|-----0---0---|---0-------0---|
|---------|---0-------0-|---0---------|-----0-------0-|
|---------|-------------|-------------|---------------|
|---------|-------------|-------------|---------------|
|---------|-0-----------|-0-----------|-0-------------|


|-----7-8-7h8p75-|-7-53-0-|-0-----0-----|-------0---7-|
|-----0-0---------|-0-------|-----0---0---|-----0---0---|
|---0-------------|---------|---0-------0-|---0---------|
|-----------------|---------|-------------|-------------|
|-----------------|---------|-------------|-------------|
|-0---------------|---------|-0-----------|-0-----------|

 INTRO (acoustic guitar w/fingerpicks)
|-----------0--------|-----------0--------|-----------0--------|
|--------0-----0-----|--------0-----0-----|--------0-----0-----|
|-----0-----------0--|-----0-----------0--|-----0-----------0--|
|--------------------|--------------------|--------------------|
|--------------------|--------------------|--------------------|
|--0-----------------|--0-----------------|--0-----------------|

|-----------0-----7--|--7--------7p0-------|--------7--8--7h87\\5-|--7--5/2------|
|--------0-----0-----|-----0-----0---0-----|--0-----0--0---------|--0--------5--|
|-----0--------------|--------0---------0--|-----0---------------|--------------|
|--------------------|---------------------|---------------------|--------------|
|--------------------|---------------------|---------------------|--------------|
|--0-----------------|--0------------------|--0------------------|--------------|

|-----------2p0-------|-----------0--0--0--|--0----------3p0-----0--|
|--5-----5------5-----|--------5-----5--5--|--5------5-------5---5--|
|-----5------------5--|-----5--------5--5--|--5----5---5-------5-5--|
|---------------------|--------------------|------------------------|
|--0------------------|--0-----------0--2--|--3--3---------------3--|
|---------------------|--------------------|------------------------|

                                  N.H.......
|--0----------0h5p0---------|-------------12--------|-----------0--------|
|--7------7---------7p0-0h5-|-----12--12------0-----|--------0-----0-----|
|--7----7---7---------------|-----12-------------0--|-----0-----------0--|
|---------------------------|-----------------------|--------------------|
|--5--5---------------------|-----------------------|--------------------|
|---------------------------|--0--------------------|--0-----------------|

|-----------0--------|-----------0--------|------------7------|
|--------0-----0-----|--------0-----0-----|------------8------|
|-----0-----------0--|-----0-----------0--|----------9--------|
|--------------------|--------------------|--------9----------|
|--------------------|--------------------|------7------------|
|--0-----------------|--0-----------------|--0----------------|

|--------------------|------------7------|--------------------|
|--------7--------5--|------------8------|--------7--------5--|
|--------7--------5--|----------9--------|--------7--------5--|
|-----7--------5-----|--------9----------|-----7--------5-----|
|--5--------3--------|------7------------|--5--------3--------|
|--------------------|--0----------------|--------------------|

|Guitar I
|------------7------|--------------------|--------------------|
|------------8------|--------7--------5--|--------3--------4--|
|----------9--------|--------7--------5--|--------4--------2--|
|--------9----------|-----7--------5-----|-----5--------4-----|
|------7------------|--5--------3--------|-----------2--------|
|--0----------------|--------------------|--3-----------------|
|                   |                    |                    |
|Guitar II (acoustic guitar)             |                    |
|------------7------|----5--------3------|----3--------2------|
|----------8--------|------7--------5----|------3--------4----|
|--------9----------|--------7--------5--|--------4--------2--|
|-------------------|--------------------|--------------------|
|-------------------|--------------------|--------------------|
|-------------------|--------------------|--------------------|

|Guitar I
|------------0--------|-----------0--------|
|---------0-----0-----|--------0-----0-----|
|------0-----------0--|-----0-----------0--|
|---------------------|--------------------|
|---------------------|--------------------|
|--0------------------|--0-----------------|
|
|              Drop only, w/volume swell
|                  1/5 (tremolo)
|                      \\  /
|Guitar II              \\/
|--------------------|--12-----------------|
|--------------------|--12-----------------|
|-2p0--0-------------|--12-----------------|
|----4---------------|---------------------|
|--------------------|---------------------|
|--------------------|---------------------|

 VERSE 1 (Rhy.fig.1)
|-----------3----0-----|--2----3-----0----------|-----------3----0-----|
|--------0---------0---|---------3------3-------|--------0---------0---|
|-----0--------0-----0-|-----------0------0-----|-----0--------0-----0-|
|----------------------|--0--0------------------|----------------------|
|----------------------|-------------3----------|----------------------|
|--0-------------------|--------------------3-2-|--0-------------------|

|--2---------------------|-----------3----0-----|--2----3-----3--------|
|-------3-----3----3-----|--------0---------0---|---------3------3-----|
|---------2p0----0-------|-----0--------0-----0-|-----------0-------0--|
|--0--0------------------|----------------------|--0--0----------------|
|-------------3----------|----------------------|-------------3--------|
|--------------------3-2-|--0-------------------|----------------------|

|--------3--2----2----|--0--------0--------|-----------0---------|
|--------3--0------0--|--------0-----0-----|--------0-----0------|
|-----0-----2---------|-----0-----------0--|-----0---------------|
|---------------------|--------------------|---------------------|
|-----------2--2------|--------------------|---------------------|
|--3------------------|--0-----------------|--0--------------3-2-|

 VERSE 2
|Synth I (w/Rhy.fig1)
|---------------|-------------------|--------------|--------------------|
|---------------|-------------------|--------------|--------------------|
|--9------------|--11---12---9------|--------------|--11---12---12------|
|---------------|-------------------|--------------|--------------------|
|---------------|-------------------|--------------|--------------------|
|---------------|-------------------|--------------|--------------------|
|               |                   |              |                    |
|Synth II       |                   |              |                    |
|---------------|-------------------|--------------|--------------------|
|--8------------|--10---12---8------|--------------|--10---12---13------|
|---------------|-------------------|--------------|--------------------|
|---------------|-------------------|--------------|--------------------|
|---------------|-------------------|--------------|--------------------|
|---------------|-------------------|--------------|--------------------|

|Synth I
|----------------|-------------------|----------------|---------------|
|----------------|-------------------|----------------|---------------|
|--12------------|--11---12---9------|----------------|---------------|
|----------------|-------------------|--9-------------|---------------|
|----------------|-------------------|----------------|---------------|
|----------------|-------------------|----------------|---------------|
|                |                   |                |               |
|Synth II        |                   |                |               |
|----------------|-------------------|----------------|---------------|
|--12------------|--10---12---8------|--8------7------|---------------|
|----------------|-------------------|----------------|--9------------|
|----------------|-------------------|----------------|---------------|
|----------------|-------------------|----------------|---------------|
|----------------|-------------------|----------------|---------------|

 VERSE 3 Acoustic guitar (w/rhy.fig.1)
|-------------------|-----------------|-------------------|-----------------|
|-------------------|-----------------|-------------------|-----------------|
|-------------------|-----------------|-------------------|-----------------|
|------5--5/7--7\\5--|--4--------------|------5--5/7--7\\5--|--4---0---0------|
|---7--7--7/9--9\\7--|--5---7---7------|---7--7--7/9--9\\7--|--5--------------|
|-0-----------------|-----------------|-0-----------------|-----------------|

|-------------------|-----------------|---------------------|-------------------|
|-------------------|-----------------|---------------------|----5--7--8--7--5--|
|-------------------|------0----------|---------------------|-------------------|
|------5--5/7--7\\5--|--4-------2------|--0------------------|-------------------|
|---7--7--7/9--9\\7--|--5-------3------|--2--2-3-2----2-3-2--|-------------------|
|-0-----------------|-----------------|---------------------|-------------------|

||     Fill 1       ||
||-----------5------||
||--8--7--5---------||
||------------------||
||------------------||
||------------------||
||------------------||

 CHORUS (acoustic guitar)
 w/fill 1                                                      repeat twice
||--0---------|--2---2-2-2-3-2--0--2-|--0---------|--2---2-2-2-3-2--0--2--||
||*-1----2----|--3---3-3-3-3-3--3--3-|--1----2----|--3---3-3-3-3-3--3--3-*||
||--0----2----|--2---2-2-2-2-2--2--2-|--0----2----|--2---2-2-2-2-2--2--2--||
||*-2----2----|--0---0-0-0-0-0--0--0-|--2----2----|--0---0-0-0-0-0--0--0-*||
||--3----0----|----------------------|--3----0----|-----------------------||
||------------|----------------------|------------|-----------------------||

|Guitar I
|--0-----------------|--2--2-2-2--|--0------------|--------------|
|--1--------2--------|--3--3-3-3--|--0------------|--------------|
|--0--------2--------|--2--2-2-2--|--0------------|--------------|
|--2--------2--------|--0--0-0-0--|--2------------|--------------|
|--3--------0--------|------------|--2------------|--------------|
|--------------------|------------|--0------------|--------------|
|                    |            |               |              |
|Guitar II (synth)   |            |               |              |
|--------------------|------------|---------------|--------------|
|--------------------|------------|---------------|--------------|
|--------------------|--------7---|--9------------|--------------|
|------2-5--------7--|------7-----|---------------|--------------|
|----3----------7----|----5-------|---------------|--------------|
|-------------5------|------------|---------------|--------------|
|                    |            |               |              |
|Guitar III (acoustic guitar)     |               |              |
|--------------------|------------|--------0------|--------0-----|
|--------------------|------------|------0---0----|------0---0---|
|--------------------|------------|----0-------0--|----0-------0-|
|--------------------|------------|---------------|--------------|
|--------------------|------------|---------------|--------------|
|--------------------|------------|--0------------|--0-----------|

 INTERLUDE
|Guitar I (acoustic guitar)
|--12--------14--------|--15--------17--------|--8--------8--------|
|------12--------12----|------12--------12----|-----5--------5-----|
|----------------------|----------------------|--------5--------5--|
|----------------------|----------------------|--------------------|
|----------------------|----------------------|--------------------|
|----------------------|----------------------|--------------------|
|                      |                      |                    |
|Guitar II (acoustic guitar)                  |                    |
|--15--------17--------|--19--------20--------|--12----------------|
|------17--------17----|------17--------17----|------13------------|
|----------------------|----------------------|--------------------|
|----------------------|----------------------|--------------------|
|----------------------|----------------------|--------------------|
|----------------------|----------------------|--------------------|

|Guitar I
|----------8--------|--0----------0-----|--0----------0-----|
|-------5-----5-----|-----1----------1--|-----3----------3--|
|----5-----------5\\-|--------0----------|--------2----------|
|-------------------|-------------------|-------------------|
|-------------------|-------------------|-------------------|
|-------------------|-------------------|-------------------|
|                   |                   |                   |
|Guitar II          |                   |                   |
|-------------------|--11/12------------|--12/14------------|
|-------------------|---------13--------|---------15--------|
|-------------------|-------------12----|-------------14----|
|-------------------|-------------------|-------------------|
|-------------------|-------------------|-------------------|
|-------------------|-------------------|-------------------|

|Guitar I
|--0-7-------7-0-------|-----------0------|--12--------14--------|
|------0---------0-----|--------0---------|------12--------12----|
|---------0---------0--|-----0------------|----------------------|
|----------------------|------------------|----------------------|
|----------------------|------------------|----------------------|
|----------------------|--0---------------|----------------------|
|                      |                  |                      |
|Guitar II             |                  |                      |
|-----12-----12--------|------------------|--15--------17--------|
|--12-----------12-----|------------------|------17--------17----|
|----------------------|------------------|----------------------|
|----------------------|------------------|----------------------|
|----------------------|------------------|----------------------|
|----------------------|------------------|----------------------|

|Guitar I
|--15--------17--------|--8--------8--------|----------8--------|
|------12--------12----|-----5--------5-----|-------5-----5-----|
|----------------------|--------5--------5--|----5-----------5\\-|
|----------------------|--------------------|-------------------|
|----------------------|--------------------|-------------------|
|----------------------|--------------------|-------------------|
|                      |                    |                   |
|Guitar II             |                    |                   |
|--19--------20--------|--12----------------|-------------------|
|------17--------17----|------13------------|-------------------|
|----------------------|--------------------|-------------------|
|----------------------|--------------------|-------------------|
|----------------------|--------------------|-------------------|
|----------------------|--------------------|-------------------|

|Guitar I
|--0----------0-----|--0----------0------------|--0--7-------7--0------|
|-----1----------1--|-----3----------3---------|-------0----------0----|
|--------0----------|--------2-----------------|----------0----------0-|
|-------------------|--------------------------|-----------------------|
|-------------------|--------------------------|-----------------------|
|-------------------|--------------------------|-----------------------|
|                   |                          |                       |
|Guitar II          |                          |                       |
|--11/12------------|--------------------------|-----------------------|
|---------13--------|--------------------------|-----12-----12---------|
|-------------12----|----12--12h14---12h14-14b-|--12-------------------|
|-------------------|--------------------------|---------------14------|
|-------------------|--------------------------|-----------------------|
|-------------------|--------------------------|-----------------------|

|Guitar I
|-------------------0------------|---...----------|
|--------------0---------0-------|---...----------|
|---------0----------------------|---...----------|
|--------------------------------|---...----------|
|--------------------------------|---...----------|
|--0-----------------------------|---...----------|
|                                |                |
|Guitar II                       |                |
|--------------------------------|----------------|
|----15--15--15------------------|----------------|
|----14--14b-14r-12-----------12-|----------------|
|-------------------14--12h14----|--14------------|
|--------------------------------|----------------|
|--------------------------------|----------------|

BEFORE SOLO
|---------------------------|
|---------------------------|
|---------------------------|
|---------------------------|
|--7-7---------2-2-2-2-2-2--|
|------0-0-0-0-0-0-0-0-0-0--|
       pm. . . . . . . . .

 SOLO
|Guitar I (overdriven guitar)
|------------------------|----------------------------------|
|--15--------------------|----------------------------------|
|--14b---14br-12~--14-12-|--11h12p11----11---------12-14-12-|
|------------------------|-----------14----12-14~-----------|
|------------------------|----------------------------------|
|------------------------|----------------------------------|
|                        |                                  |
|Guitar II (overdriven guitar)                              |
|------------------------|----------------------------------|
|------------------------|----------------------------------|
|------------------------|----------------------------------|
|-------------9------9---|--7----------7---------5----------|
|--2----2/7---7------7---|--5----------5---------3----------|
|--0---------------------|----------------------------3-2---|

|Guitar I
|--------12-------12-------------------|---------------------------|
|-----12-------12----15p12----12-------|----------14--14-13--------|
|--14b------14b------------15----15-14-|--12br----14--14-13-12\\----|
|--------------------------------------|-------14------------------|
|--------------------------------------|---------------------------|
|--------------------------------------|---------------------------|
|                                      |                           |
|Guitar II                             |                           |
|--------------------------------------|---------------------------|
|--------------------------------------|---------------------------|
|--------------------------------------|---------------------------|
|--------------------9---------9-------|----------7---7-----5------|
|--2------2/7--------7---------7-------|----------5---5-----3------|
|--0-----------------------------------|-----------------------3-2-|

|Guitar I
|--14/15--14~-----15--14~-15/17--|--15-14h15p14\\12----15-14---------------|
|-------------12-----------------|-----------------12-------12------------|
|--------------------------------|-------------------------------12-14-12-|
|--------------------------------|----------------------------------------|
|--------------------------------|----------------------------------------|
|--------------------------------|----------------------------------------|
|                                |                                        |
|Guitar II                       |                                        |
|--------------------------------|----------------------------------------|
|--------------------------------|----------------------------------------|
|--------------------------------|----------------------------------------|
|----------------------9------9--|--7------------7----------5-------------|
|--2---------2/7-----7--------7--|--5------------5----------3-------------|
|--0-----------------------------|------------------------------------3-2-|

|Guitar I
|----------------------12------------|----------------|--------------|
|--15---------------12-----15-15b-12-|--15b-----------|--------------|
|--14br-12----12-14b-----------------|----------------|--------------|
|----------14------------------------|----------------|--------------|
|------------------------------------|----------------|--------------|
|------------------------------------|----------------|--------------|
|                                    |                |              |
|Guitar II                           |  let ring      |              |
|------------------------------------|----------------|--------------|
|------------------------------------|----------------|--------------|
|------------------------------------|----------------|--------------|
|--------------------------4---------|----------------|--------------|
|--5-----------------------2---------|--2-------------|--(2)---------|
|--3---------------------------------|--0-------------|--(0)---------|

|Guitar I
|---------------------|--------------------|
|--12h15p12\\-------7\\-|--5h7p5-------------|
|---------------------|--------------------|
|---------------------|--------------------|
|---------------------|--------------------|
|---------------------|--------------------|
|                     |                    |
|Guitar II            |                    |
|-----------0---------|-----------0--------|
|--------0-----0------|--------0-----0-----|
|-----0-----------0---|-----0-----------0--|
|---------------------|--------------------|
|---------------------|--------------------|
|--0------------------|--0-----------------|

LAST VERSE (overdriven guitar)
(w/rhy.fig 1)
|-----------------|--------------|-----------------|--------------|
|--7--8---5-------|--------------|--7---8---3------|--------------|
|-----------------|--------------|-----------------|--------------|
|-----------------|--------------|-----------------|--------------|
|-----------------|--------------|-----------------|--------------|
|-----------------|--------------|-----------------|--------------|

|-----------------|
|--7---8---12-----|
|-----------------|
|-----------------|
|-----------------|
|-----------------|

ENDING (acoustic guitar)

|--0--------0--------|-----------0-----7--|--7--------7p0-------|
|--------0-----0-----|--------0-----0-----|-----0---------0-----|
|-----0-----------0--|-----0--------------|--------0---------0--|
|--------------------|--------------------|---------------------|
|--------------------|--------------------|---------------------|
|--0-----------------|--0-----------------|--0------------------|
                     (repeat and fade)
|--------7--8--7h-8p7\\5-|--7--5\\3-0--|
|--------0--0-----------|--0---------|
|-----0-----------------|------------|
|-----------------------|------------|
|-----------------------|------------|
|--0--------------------|------------|

Que te parecio? Calificalo con estrellas!!

Rating: 7.8/10 (41 votos)

Este fichero es trabajo propio de su transcriptor y representa su interpretación personal de la canción. El material contenido en esta página es para exclusivo uso privado, por lo que se prohibe su reproducción o retransmisión, así como su uso para fines comerciales.


Deja tus comentarios:

Letras de METALLICA
Letras de canciones | Musica Independiente