Acordes y tablaturas para guitarra

Acordes y Tablaturas
Usuario: Password:

Buscar:
Acordes y Tablaturas >> Letra E >> Acordes de Eric Clapton >> Tears In Heaven (5)
Tablatura de Tears In Heaven, Eric Clapton

Tears In Heaven (5)

Eric Clapton






Tears In Heaven                     


                                           Eric Clapton
Guitare
Tab : 



     TEMPO 80                  Intro          
                               |----3---|     
     Q        E  S  S    E  E  S     S  S E   
E||-------------------|----------------------|
B||-------------------|--------2h----3p-2----|
G||-------------------|--------2----------2--|
D||-------------------|-----2----------------|
A||-------------------|--0-------------------|
E||--------------0h-2-|----------------------|


  E  E  E  E     E  E  E  E     E  E  E  E   
--------------|--------------|--------------|
--5-----5--2--|--L-----2-----|--2-----2-----|
--4-----4--2--|--L-----2-----|--2-----2-----|
--------------|--------------|--------------|
--------------|--------------|--------------|
--4--4-----2--|--L--2-----2--|--0--0-----0--|


  E  E  E  E     E  E  Q       E  E  E  E   
--------------|-------------|--------------|
--3-----3-----|--3-----3----|--2-----2-----|
--2-----2-----|--2-----1----|--2-----2-----|
--------------|-------------|--2-----2-----|
--------------|-------------|--0--0-----0--|
--2--2-----2--|--0--0-------|--------------|


                           Couplet          
                           |-----3----|     
  E  E  E  S  S      E  E  S       S  S E   
----------------||-------------------------|
--2-----2-------||---------2h------3p-2----|
--2-----2-------||*--2-----2------------2--|
--2-----2-------||*-----2------------------|
--0--0----------||---0---------------------|
-----------0h-2-||-------------------------|


  E  E  E  E     E  S T T  E  S T T     E  E  E  E   
--------------|---------5h-7--5-L----|--------------|
--5-----5--2--|--L------5h-7--5-L-5S-|--7--5--2--5--|
--4-----4--2--|--L----------------4S-|--6--4--2--2--|
--------------|----------------------|--------------|
--------------|----------------------|--------------|
--4--4-----2--|--L--2-L-----------0--|--------0-----|


                                   ^     ^   
  E  E  E  E     E  E  E  E     E  E  E  E   
--------------|--------0-----|--------------|
--3-----3-----|--2--------0--|--L-----0-----|
--2-----2-----|--2--------1--|--L-----1-----|
--------------|--------------|--------------|
--------------|--------------|-----2-----4--|
--2--2-----2--|--0--0--------|-----0-----0--|


     ^                                              
                         |--3--|                    
  E  E  E  S  S    E  E  S  S  S E     E  E  E  E   
----------------|-------------------|--------------|
--2-----3-------|--------2h-3p-2----|--5-----5--2--|
--2-----4-------|--------2-------2--|--4-----4--2--|
----------------|-----2-------------|--------------|
-----5----------|--0----------------|--------------|
-----0-----0h-2-|-------------------|--4--4-----2--|


  E  E  E  E       E  E  E  E     E  E  E  E   
--------2--4--|--4g5--4--2-----|--------------|
--L-----2--2--|----2--2--2--5--|--3-----3-----|
--L-----------|-------------2--|--2-----2-----|
--------------|----------------|--------------|
--------------|----------------|--------------|
--L--2--------|----0-----0-----|--2--2-----2--|


                    ^     ^        ^         
  E  E  E  E     E  E  E  E     E  E  E  E   
--------0-----|--------------|--------------|
--2--------0--|--L-----0-----|--2-----3-----|
--2--------1--|--L-----1-----|--2-----4-----|
--------------|--------------|--------------|
--------------|-----2-----4--|-----5--------|
--0--0--------|-----0-----0--|-----0-----0--|


  E  E  E  E     E  E  E  E     E  E  E  E   
--------2-----|--------2-----|--------1-----|
-----2-----2--|-----2-----2--|-----2-----2--|
--2-----------|--2-----------|--1-----------|
--------------|--------------|--------------|
--------------|--------------|--------------|
--2-----------|--2-----------|--1-----------|


  E  E  E  E     E  E  E  E     E  E  E  E   
--------1-----|--------0-----|--------0-----|
-----2-----2--|-----0-----0--|-----0-----0--|
--1-----------|--0-----------|--0-----------|
--------------|--------------|--------------|
--------------|--------------|--------------|
--1-----------|--0-----------|--0-----------|


  E  E  E  E     E  E  E  E     E  E  E  E   
--------------|--------------|--------2-----|
--------------|--------2-----|--3-----3-----|
--3-----3-----|--4-----3-----|--2-----------|
--4-----4-----|--4-----------|-----4-----4--|
--------------|--------------|--2-----------|
--2--2-----2--|--2--2-----2--|--------------|


  E  E  E  E     E  E  E  E     Q    E  S  S  
--------2-----|--------------|---------------|
--3-----3-----|-----3--3-----|--3----L-------|
--2-----------|-----2--2-----|--1----L-------|
-----4-----4--|-----2--2-----|--2----L-------|
--2-----------|--------------|---------------|
--------------|--0--------0--|----------0h-2-|


        |--3--|                    
  E  E  S  S  S E     E  E  E  E   
-------------------|--------------|
--------2h-3p-2----|--5-----5--2--|
--------2-------2--|--4-----4--2--|
-----2-------------|--------------|
--0----------------|--------------|
-------------------|--4--4-----2--|


  E  S T T  E  S T T     E  E  E  E     E  E  E  E   
---------5h-7--5-L----|--------------|--------------|
--L------5h-7--5-L-5S-|--7--5--2--5--|--3-----3-----|
--L----------------4S-|--6--4--2--2--|--2-----2-----|
----------------------|--------------|--------------|
----------------------|--------------|--------------|
--L--2-L-----------0--|--------0-----|--2--2-----2--|


  E  E  E  E     E  E  E  S  S  
--------------|----------------|
--3-----3-----|--2-----2-------|
--2-----1-----|--2-----2-------|
--------------|--2-----2--2h-4-|
--------------|--0--0----------|
--0--0-----0--|----------------|


  S  S S  S  S S S  S      E  E  E  E   
-----------------------||--------------|
-------2h-3p-2---------||--2-----2-----|
--2h-4---------4------*||--2-----2-----|
-----------------2h-4-*||--2-----2-----|
-----------------------||--0--0-----0--|
-----------------------||--------------|


  E  E  E  S S      E  E  E  E   
---------------||---------0-----|
--2-----2------||------------1--|
--2-----2------||*-----0--------|
--2-----2------||*--------------|
--0--0-----0-2-||---3-----------|
---------------||---------------|


     2,4(barre)                                     
  E  E          E  E     E  E  E  E     Q    E  E   
----------------3-----|--------------|-------------|
--3-------------3--1--|--L-----1-----|--3-------0--|
-----0-------------0--|--L--------0--|--2-------0--|
----------------------|-----2--------|-------0-----|
--2----------------0--|--L-----0-----|-------------|
----------------------|--------------|--2----------|


  E  E  E  E     E  E  E  E     E  E  E  E   
--------------|--------------|--------------|
--------0-----|--------------|--------------|
--------0-----|--------2-----|--------0-----|
-----0-----0--|-----0-----0--|--------2-----|
--------------|--------------|-----2-----2--|
--3-----------|--2-----------|--0-----------|


                               ^          
  Q    Q         E  E  Q       Q    Q     
-------------||-------------|--0---------|
-------0-----||--------3----|--0---------|
--2----0----*||--------2----|--1---------|
--0---------*||-----0-------|--2---------|
-------------||-------------|--2---------|
--2----3-----||--2----------|--0----0----|


                          Couplet          
  ^    ^                                   
                          |-----3----|     
  Q    E  S  S      E  E  S       S  S E   
---------------||-------------------------|
--2----3-------||---------2h------3p-2----|
--2----4-------||*--2-----2------------2--|
--2----2-------||*-----2------------------|
---------------||---0---------------------|
--0----0--0h-2-||-------------------------|


  E  E  E  E     E  S T T  E  S T T     E  E  E  E   
--------------|---------5h-7--5-L----|--------------|
--5-----5--2--|--L------5h-7--5-L-5S-|--7--5--2--5--|
--4-----4--2--|--L----------------4S-|--6--4--2--2--|
--------------|----------------------|--------------|
--------------|----------------------|--------------|
--4--4-----2--|--L--2-L-----------0--|--------0-----|


                                   ^     ^   
  E  E  E  E     E  E  E  E     E  E  E  E   
--------------|--------0-----|--------------|
--3-----3-----|--2--------0--|--L-----0-----|
--2-----2-----|--2--------1--|--L-----1-----|
--------------|--------------|--------------|
--------------|--------------|-----2-----4--|
--2--2-----2--|--0--0--------|-----0-----0--|


     ^                                              
                         |--3--|                    
  E  E  E  S  S    E  E  S  S  S E     E  E  E  E   
----------------|-------------------|--------------|
--2-----3-------|--------2h-3p-2----|--5-----5--2--|
--2-----4-------|--------2-------2--|--4-----4--2--|
----------------|-----2-------------|--------------|
-----5----------|--0----------------|--------------|
-----0-----0h-2-|-------------------|--4--4-----2--|


  E  E  E  E       E  E  E  E     E  E  E  E   
--------2--4--|--4g5--4--2-----|--------------|
--L-----2--2--|----2--2--2--5--|--3-----3-----|
--L-----------|-------------2--|--2-----2-----|
--------------|----------------|--------------|
--------------|----------------|--------------|
--L--2--------|----0-----0-----|--2--2-----2--|


                    ^     ^        ^         
  E  E  E  E     E  E  E  E     E  E  E  E   
--------0-----|--------------|--------------|
--2--------0--|--L-----0-----|--2-----3-----|
--2--------1--|--L-----1-----|--2-----4-----|
--------------|--------------|--------------|
--------------|-----2-----4--|-----5--------|
--0--0--------|-----0-----0--|-----0-----0--|


  E  E  E  E     E  E  E  E     E  E  E  E   
--------2-----|--------2-----|--------1-----|
-----2-----2--|-----2-----2--|-----2-----2--|
--2-----------|--2-----------|--1-----------|
--------------|--------------|--------------|
--------------|--------------|--------------|
--2-----------|--2-----------|--1-----------|


  E  E  E  E     E  E  E  E     E  E  E  E   
--------1-----|--------0-----|--------0-----|
-----2-----2--|-----0-----0--|-----0-----0--|
--1-----------|--0-----------|--0-----------|
--------------|--------------|--------------|
--------------|--------------|--------------|
--1-----------|--0-----------|--0-----------|


  E  E  E  E     E  E  E  E     E  E  E  E   
--------------|--------------|--------2-----|
--------------|--------2-----|--3-----3-----|
--3-----3-----|--4-----3-----|--2-----------|
--4-----4-----|--4-----------|-----4-----4--|
--------------|--------------|--2-----------|
--2--2-----2--|--2--2-----2--|--------------|


  E  E  E  E     E  E  E  E     Q    E  S  S  
--------2-----|--------------|---------------|
--3-----3-----|-----3--3-----|--3----L-------|
--2-----------|-----2--2-----|--1----L-------|
-----4-----4--|-----2--2-----|--2----L-------|
--2-----------|--------------|---------------|
--------------|--0--------0--|----------0h-2-|


        |--3--|                    
  E  E  S  S  S E     E  E  E  E   
-------------------|--------------|
--------2h-3p-2----|--5-----5--2--|
--------2-------2--|--4-----4--2--|
-----2-------------|--------------|
--0----------------|--------------|
-------------------|--4--4-----2--|


  E  S T T  E  S T T     E  E  E  E     E  E  E  E   
---------5h-7--5-L----|--------------|--------------|
--L------5h-7--5-L-5S-|--7--5--2--5--|--3-----3-----|
--L----------------4S-|--6--4--2--2--|--2-----2-----|
----------------------|--------------|--------------|
----------------------|--------------|--------------|
--L--2-L-----------0--|--------0-----|--2--2-----2--|


  E  E  E  E     E  E  E  S  S  
--------------|----------------|
--3-----3-----|--2-----2-------|
--2-----1-----|--2-----2-------|
--------------|--2-----2--2h-4-|
--------------|--0--0----------|
--0--0-----0--|----------------|


  S  S S  S  S S S  S      E  E  E  E   
-----------------------||--------------|
-------2h-3p-2---------||--2-----2-----|
--2h-4---------4------*||--2-----2-----|
-----------------2h-4-*||--2-----2-----|
-----------------------||--0--0-----0--|
-----------------------||--------------|


  E  E  E  S  S    H          
----------------|-----------||
--2-----2-------|-----------||
--2-----2-------|--2--------||
--2-----2-------|--2--------||
-----0----------|--0--------||
-----------0h-2-|-----------||

Que te parecio? Calificalo con estrellas!!

Rating: 3.8/10 (11 votos)

Este fichero es trabajo propio de su transcriptor y representa su interpretación personal de la canción. El material contenido en esta página es para exclusivo uso privado, por lo que se prohibe su reproducción o retransmisión, así como su uso para fines comerciales.


Comentario de chop0n
hola les dejo esta tablatura espero les sirva porfavor visiten mi canal de youtube mrbeatlemaniako y suscribanse ... tambien tengo la tablatura de la voz de esta cancion si la quieren mandenme mensaje en el mismo canal bueno adios
Deja tus comentarios:

Letras de Eric Clapton
Letras de canciones | Musica Independiente