Enviado por: xisquito
Agrandar Letra
Reducir Letra

Acordes:
½ tono
| +0 |
½ tono
||
Volver



Green Day, American idiot

 INTRO: G# C# F# G# F# [x4]

Verso 1 

Don\'t wanna be an American idiot. G# C# F# G# F#
                               
Don\'t want A nation that under the new media. G# C# F# G# F# 
                        
And can you hear the sound of hysteria?  G# C# F# G# F#
                  
The subliminal mindfuck America.  G# C# F# G# F#


Coro

C#
Welcome to a new kind of tension.
G#
All across the alienation.
Eb                            G#
Everything isn\'t meant to be okay.
C#
Television dreams of tomorrow.
G#
We\'re not the ones who\'re meant to follow.
D#
Convincing them to walk you.

Verso 2

Well maybe I\'m the faggot America. G# C# F# G# F#
                     
I\'m not A part of A redneck agenda. G# C# F# G# F#
                  
Now everybody Do the propaganda. G# C# F# G# F#
                       
And sing along in the age of paranoia. G# C# F# G# F#

Coro

C#
Welcome to a new kind of tension.
G#
All across the alienation.
Eb                            G#
Everything isn\'t meant to be okay.
C#
Television dreams of tomorrow.
G#
We\'re not the ones who\'re meant to follow.
D#
Convincing them to walk you.

Antes del solo
G# C# F# G# F# [x4]
Solo 

E|---------------------------------------------------------------|
B|---------------------------------------------------------------|
G|--10-10-10-10-10-10-10-10-8-6---8-8-8-8-8-8/10-8-6-5-----------|
D|---------------------------------------------------------------|
A|--8--8--8--8--8--8--8--8--6-4---6-6-6-6-6-6/8--6-4-3-----------|
E|---------------------------------------------------------------|

E|--------------------------------------------------------8---------------|
B|-------------------------------------9--------11----------------11-----9|
G|------------------------8-10--10-10----10-10-----10-10----10-10-----10--|
D|---8-8-8-8-8-8--10-11---------------------------------------------------|
A|------------------------------------------------------------------------|
E|------------------------------------------------------------------------|

E|---------------------------------------------------------------|
B|---------------------------------------------------------------|
G|--10-10-10-10-10-10-10-10-8-6---8-8-8-8-8-8/10-8-6-5-----------|
D|---------------------------------------------------------------|
A|--8--8--8--8--8--8--8--8--6-4---6-6-6-6-6-6/8--6-4-3-----------|
E|---------------------------------------------------------------|

E|---------------------------------------------------------------|
B|---------------------------------------------------------------|
G|------------------------8--10--8-------------------------------|
D|---8-8-8-8-8-8--10-11------------------------------------------|
A|---------------------------------------------------------------|
E|---------------------------------------------------------------|

Verso 3 
G#     C#     F#      G#    F#
Don\'t wanna be an American idiot.
  
G#     C#     F#      G#    F#
One nation controlled by the media.

G#     C#     F#      G#    F#
Information nation of hysteria.

It\'s going out to idiot America.

Coro

C#
Welcome to a new kind of tension.
G#
All across the alienation.
Eb                            G#
Everything isn\'t meant to be okay.



C#
Television dreams of tomorrow.
G#
We\'re not the ones who\'re meant to follow.
D#
Convincing them to walk you.

Final

G# C# F# G# F# [x5]
 
Aviso: Este fichero es trabajo propio de su transcriptor y representa su interpretación personal de la canción. El material contenido en esta página es para exclusivo uso privado, por lo que se prohibe su reproducción o retransmisión, así como su uso para fines comerciales.
comentario del colaborador: Cualquier duda escribeme a mi correo ([email protected])

Califica esta canción


Comentarios en Facebook