Acordes y tablaturas para guitarra

Acordes y Tablaturas
Usuario: Password:

Buscar:
Acordes y Tablaturas >> Letra M >> Acordes de METALLICA >> nothing else matters (5)
Tablatura de nothing else matters, METALLICA

Nothing else matters (5)

METALLICA






holaaa... xd
esta es la mejor version de nothing else matters






=-=-= Legend =-=-=
~  - Let ring
s  - Slide to required note
h  - Hammer on
p  - Pull off
<> - Harmonics
{} - Played Louder
() - Played Softer
[] - Continued Note from Last Bar
=  - Staccato
b* - Bend to required pith
r* - Bend Return to required pitch
#*#- If you wish, play the required fill here.



x x x x x x x x x x x x x x x x x x x x x x x x x x x x x x x x x x x x x
Intro - Single Guitar
Clean Electric - Kirk (Guitar 1 - Finger Picked)


e|--------0-------|--------0-------|--------0-------|--------0----7--|
B|------0---0-----|------0---0-----|------0---0-----|------0---0-----|
G|----0-------0---|----0-------0---|----0-------0---|----0-----------|
D|----------------|----------------|----------------|----------------|
A|----------------|----------------|----------------|----------------|
E|-0--------------|-0--------------|-0--------------|-0--------------|
  Em
e|-7------7p0-----|(0)--7--8-7h8s5-|--7---5p3s2--0--|------2p0-------|
B|---0----0---0---|-----0--0-------|--0-------------|-5---5-----5----|
G|-----0--------0-|---0------------|----------------|---5----------5-|
D|----------------|----------------|----------------|----------------|
A|----------------|----------------|----------------|-0--------------|
E|-0--------------|-0--------------|----------------|----------------|
                                                     Am
e|-------0--0=-0=-|-0~------3p0---0=-|-0~-----0~h5p0--------|
B|-----5----5=-5=-|-5~---5-----5--5=-|-7~---7-------7p0-0h5-|
G|---5------5=-5=-|-5~--5-5-----5-5=-|-7~--7-7--------------|
D|----------------|------------------|----------------------|
A|-0--------0=-2=-|-3~-3----------3=-|-5~-5-----------------|
E|----------------|---------------#1#|#1#-------------------|
                    C                 Dadd2/9
e|----------<12>~~~~---|--------0-------|--------0-------|--------0-------|
B|-------<12>~~~~0-----|------0---0-----|------0---0-----|------0---0-----|
G|----<12>~~~~-----0---|----0-------0---|----0-------0---|----0-------0---|
D|---------------------|----------------|----------------|----------------|
A|---------------------|----------------|----------------|----------------|
E|-0-------------------|-0--------------|-0--------------|-0--------------|
   Em
x x x x x x x x x x x x x x x x x x x x x x x x x x x x x x x x x x x x x
Fill # 1 - S & M
Clean Electric - Kirk (Guitar 1)


.

e|---0-0~---|[0]~-----0~h5p0--------|
B|---5s7~---|[7]~---7-------7p0-5p0-|
G|---5s7~---|[7]~--7-7--------------|
D|----------|-----------------------|
A|---3s5~---|[5]~-5-----------------|
E|----------|-----------------------|

x x x x x x x x x x x x x x x x x x x x x x x x x x x x x x x x x x x x x
Intro Part # 2 - Two Guitars
Clean Electric - Kirk  (Guitar 1 - Either)
Clean Electric - James (Guitar 2 - Picked)

e|----------7~~---|----------------|----------7~~---|----------------|
B|----------8~~---|-----7=-----5=--|----------8~~---|-----7=-----5=--|
G|--------9-------|-----7=-----5=--|--------9-------|-----7=-----5=--|
D|------9---------|---7------5-----|------9---------|---7------5-----|
A|----7-----------|-5------3-------|----7-----------|-5------3-------|
E|-{0}------------|----------------|-0--------------|----------------|
/// Guitar 1        D      C         Em               D      C        Em
\ Guitar 2
e|----------7--7-7|----------------|----------7~~---|------------------|
B|----------8--8-8|-----7=-----5=--|----------8~~---|-----7=-----------|
G|--------9-------|-----7=-----5=--|--------9-------|-----7=-----------|
D|------9---------|---7------5-----|------9---------|---7--------------|
A|----7-----------|-5------3-------|----7-----------|-5------3-2h3p2---|
E|-{0}------------|----------------|-0--------------|----------------3-|
:::::::::::::::::::::::::::::::::::::::::::::::::::::::::::::::::::::::::::::
e|----------7-----|---5------3-----|*---3------2-----*|----------------|-<12>-|
B|--------8-------|----7------5----|*----3------4----*|----------------|-<12>-|
G|------9---------|-----7------5---|*-----4------2---*|-2p0---0--------|-<12>-| 
D|----------------|----------------|*----------------*|-----4----------|------|
A|----------------|----------------|*----------------*|----------------|------|
E|----------------|----------------|*----------------*|----------------|------|
/// Guitar 1        D      C         G      B7         Em 
\ Guitar 2
e|----------7--7-7|----------------|*----------------*|--------0-------|
B|----------8--8-8|-----7=-----5=--|*-----3=-----4=--*|------0---0-----|
G|--------9-------|-----7=-----5=--|*-----4=-----2=--*|----0-------0---|
D|------9---------|---7------5-----|*---5------4-----*|----------------| 
A|----7-----------|-5------3-------|*--------2-------*|----------------|
E|-0--------------|----------------|*-3--------------*|-0--------------|



x x x x x x x x x x x x x x x x x x x x x x x x x x x x x x x x x x x x x
Verse # 1 - Single Guitar
Clean Electric - James (Guitar 2 - Picked)


e|-------3----0---|-2----3---0--------|-------3----0---|-2------------------|
B|-----0-------0--|-------3----3------|-----0-------0--|-----3----3----3----|
G|---0------0---0-|--------0-----0----|---0------0---0-|------2p0----0------|
D|----------------|-0--0--------------|----------------|-0--0---------------|
A|----------------|----------3--------|----------------|----------3---------|
E|-0--------------|---------------3-2-|-0--------------|----------------3-2-|
   Em               D    Dsus4 Cadd2    Em               D        Cadd2

e|-------3----0---|-2----3---3-----|-----3--2----2----|-0-----0-------|-------0---------|
B|-----0-------0--|-------3----3---|-----3--0------0--|-----0---0-----|-----0---0-------|
G|---0------0---0-|--------0-----0-|---0----2---------|---0-------0---|---0-------0-----|
D|----------------|-0--0-----3-----|------------------|---------------|-----------------|
A|----------------|----------------|--------2--2------|---------------|-----------------|
E|-0--------------|----------------|-3----------------|-0-------------|-0-----------3-2-|
   Em               D                G      B7          Em              Em

x x x x x x x x x x x x x x x x x x x x x x x x x x x x x x x x x x x x x
Verse # 2 - Two Guitars
Distortion Electric - Kirk (Guitar 1 - Either)
Clean Electric - James (Guitar 2 - Picked)


esta notas tienen que durar lo mayor posible

e|----------------|-------------------|----------------|--------------------|
B|-8~~~~~~~~~~~~~~|~10~~~12~~~8~~~~~~~|~~~~~~~~~~~~~~~~|~10~~~12~~~13~~~~~~~|
G|-9~~~~~~~~~~~~~~|~11~~~12~~~9~~~~~~~|~~~~~~~~~~~~~~~~|~11~~~12~~~12~~~~~~~|
D|----------------|-------------------|----------------|--------------------|
A|----------------|-------------------|----------------|--------------------|
E|----------------|-------------------|----------------|--------------------|
/// Guitar 1
\ Guitar 2
e|-------3----0---|-2----3---0--------|-------3----0---|-2------------------|
B|-----0-------0--|-------3----3------|-----0-------0--|-----3----3----3----|
G|---0------0---0-|--------0-----0----|---0------0---0-|------2p0----0------|
D|----------------|-0--0--------------|----------------|-0--0---------------|
A|----------------|----------3--------|----------------|----------3---------|
E|-0--------------|---------------3-2-|-0--------------|----------------3-2-|
   Em               D    Dsus4 Cadd2    Em               D        Cadd2
:::::::::::::::::::::::::::::::::::::::::::::::::::::::::::::::::::::::::::::
e|----------------|-------------------|---------------|----------|----------|
B|-8~~~~~~~~~~~~~~|~10~~~12~~~8~~~~~~~|~8~~~~~~7~~~~~~|----------|----------|
G|-9~~~~~~~~~~~~~~|~11~~~12~~~9~~~~~~~|---------------|9~~~~~~~~~|~~~~~~~~~~|
D|----------------|-------------------|-9~~~~~~~~~~~~~|~~~~~~~~~~|~~~~~~~~~~|
A|----------------|-------------------|---------------|----------|----------|
E|----------------|-------------------|---------------|----------|----------|
/// Guitar 1
\ Guitar 2
e|-------3----0---|-2----3---3-----|-----3--2----2----|-0-----0-------|-------0---------|
B|-----0-------0--|-------3----3---|-----3--0------0--|-----0---0-----|-----0---0-------|
G|---0------0---0-|--------0-----0-|---0----2---------|---0-------0---|---0-------0-----|
D|----------------|-0--0-----3-----|------------------|---------------|-----------------|
A|----------------|----------------|--------2--2------|---------------|-----------------|
E|-0--------------|----------------|-3----------------|-0-------------|-0-----------3-2-|
   Em               D                G      B7          Em              Em

x x x x x x x x x x x x x x x x x x x x x x x x x x x x x x x x x x x x x
Verse # 3 - Two Guitars
Clean Electric - Kirk (Guitar 1 - Either)
Clean Electric - James (Guitar 2 - Picked)

e-----------------|----------------|----------------|----------------|
B|----------------|----------------|----------------|----------------|
G|----------------|----------------|----------------|----------------|
D|----5--5s7--7s5-|-4--------------|----5--5s7--7s5-|-4---0---0------|
A|----7--7s9--9s7-|-5---7---7------|----7--7s9--9s7-|-5--------------|
E|----------------|----------------|----------------|----------------|
/// Guitar 1
\ Guitar 2
e|-------3----0---|-2----3---0--------|-------3----0---|-2------------------|
B|-----0-------0--|-------3----3------|-----0-------0--|-----3----3----3----|
G|---0------0---0-|--------0-----0----|---0------0---0-|------2p0----0------|
D|----------------|-0--0--------------|----------------|-0--0---------------|
A|----------------|----------3--------|----------------|----------3---------|
E|-0--------------|---------------3-2-|-0--------------|----------------3-2-|
   Em               D    Dsus4 Cadd2    Em               D        Cadd2
:::::::::::::::::::::::::::::::::::::::::::::::::::::::::::::::::::::::::::::
e-----------------|----------------|------------------|
B|----------------|----------------|------------------|
G|----------------|-----0----------|------------------|
D|----5--5s7--7s5-|-4-------2------|-0----------------|
A|----7--7s9--9s7-|-5-------3------|-2--2-3-2---2-3-2-|
E|----------------|----------------|------------------|
/// Guitar 1
\ Guitar 2
e|-------3----0---|-2----3---3-----|-----3--2----2----|
B|-----0-------0--|-------3----3---|-----3--0------0--|
G|---0------0---0-|--------0-----0-|---0----2---------|
D|----------------|-0--0-----------|------------------|
A|----------------|----------3-----|--------2--2------|
E|-0--------------|----------------|-3----------------|
   Em               D                G      B7

x x x x x x x x x x x x x x x x x x x x x x x x x x x x x x x x x x x x x
Chorus - Two Guitars
Clean Electric - Kirk (Guitar 1 - Either)
Clean Electric - James (Guitar 2 - Picked)



e|----------------|-------5~~~~~~~~|
B|------5-7-8-7-5-|-8-7-5----------|
G|----------------|----------------|
D|----------------|----------------|
A|----------------|----------------|
E|----------------|----------------|
/// Guitar 1
\ Guitar 2
e|-0-----0-------|-0-------0------|-2--2-2-3---2-2-0---2-|-0------0-------|
B|-----0---0-----|-1-------2------|-3--3-3-3---3-3-3---3-|-1------2-------|
G|---0-------0---|-0-------2------|-2--2-2-2---2-2-2---2-|-0------2-------|
D|---------------|-2-------2------|-0--0-0-0---0-0-0---0-|-2------2-------|
A|---------------|-3-------0------|----------------------|-3------0-------|
E|-0-------------|----------------|----------------------|----------------|
  Em               C       A        D    Dsus4 D Dadd2 D   C      A
                   /       /        /  // /    // /    /   /      /
e|-2--2-2-3---2-2-0---2-|-0------0-------|-2--2-2-0----------|
B|-3--3-3-3---3-3-3---3-|-1------2-------|-3--3-3-0----------|
G|-2--2-2-2---2-2-2---2-|-0------2-------|-2--2-2-0----------|
D|-0--0-0-0---0-0-0---0-|-2------2-------|-0--0-0-2----------|
A|----------------------|-3------0-------|--------2----------|
E|--------------------#2|#3#-------------|-#4##5#-0----------|
   D    Dsus4 D Dadd2 D   C      A        D       Em
   /  // /    // /    /   /      /        /       / <<< The Em 

x x x x x x x x x x x x x x x x x x x x x x x x x x x x x x x x x x x x x

Clean Electric - Kirk (Guitar 1 - Either)

e|-7----------|--5-------5-|------------|
B|------------|----8-7-8---|-5----------|
G|------------|------------|------------|
D|------------|------------|------------|
A|------------|------------|------------|
E|------------|------------|------------|

x x x x x x x x x x x x x x x x x x x x x x x x x x x x x x x x x x x x x
Fill # 3 - Studio / S & M
Distortion Electric - Kirk (Guitar 1 - Either)

e|----------------|---------|----------|
B|----------------|---------|----------|
G|----------------|-------7-|-9--------|
D|-----5--------7-|-----7---|----------|
A|-3-7--------7---|---5-----|----------|
E|----------5-----|---------|----------|

x x x x x x x x x x x x x x x x x x x x x x x x x x x x x x x x x x x x x
Fill # 4 - Studio / S & M
Clean Electric - Kirk (Guitar 1 - Either)

e|----------------|----------------|-12------14-----|-15------17-----|
B|----------------|--------12---15-|----------------|----------------|
G|----------12----|-14-------------|----------------|----------------|
D|-14-------------|----------------|----------------|----------------|
A|----------------|----------------|----------------|----------------|
E|----------------|----------------|----------------|----------------|

x x x x x x x x x x x x x x x x x x x x x x x x x x x x x x x x x x x x x
Fill # 5 - Studio / S & M
Clean Electric - Kirk (Guitar 1 - Either)

e|----------------|--------5-------|
B|-5------7-------|-8--------------|
G|----------------|----------------|
D|----------------|----------------|
A|----------------|----------------|
E|----------------|----------------|

x x x x x x x x x x x x x x x x x x x x x x x x x x x x x x x x x x x x x
Interlude - Two Guitars
Clean Electric - Kirk (Guitar 1 - Either - Most likely picked)
Clean Electric - James (Guitar 2 - Picked)


e|-15-----17------|-19-----20------|-12-------------|-------------0s-|
B|---17-----17----|---17-----17----|---13-----------|----------------|
G|----------------|----------------|----------------|----------------|
D|----------------|----------------|----------------|----------------|
A|----------------|----------------|----------------|----------------|
E|----------------|----------------|----------------|----------------|
/// Guitar 1
\ Guitar 2 (Main)
e|-12-----14------|-15-----17------|-8-------8------|--------8-------|
B|---12-----12----|---12-----12----|---5-------5----|------5---5-----|
G|----------------|----------------|-----5-------5--|----5-------5s0-| 
D|----------------|----------------|----------------|----------------|
A|----------------|----------------|----------------|----------------|
E|----------------|----------------|----------------|----------------|
:::::::::::::::::::::::::::::::::::::::::::::::::::::::::::::::::::::::::::::
e|-12-------------|-12s14----------|---12----12------|---------------|
B|---13-----------|------15--------|-12--------12----|---------------|
G|-----12---------|--------14------|-----------------|---------------|
D|----------------|----------------|-----------------|---------------|
A|----------------|----------------|-----------------|---------------|
E|----------------|----------------|-----------------|---------------|
/// Guitar 1
\ Guitar 2 (Main)
e|-0---------0----|-0----------0---|-0-7-----7-0-----|-------0-------|
B|---1---------1--|---3----------3-|-----0-------0---|-----0---------|
G|-----0----------|-----2----------|-------0-------0-|---0-----------|
D|----------------|----------------|-----------------|---------------|
A|----------------|----------------|-----------------|---------------|
E|----------------|----------------|-----------------|-0-------------|
*:::::::::::::::::::::::::::::::::::::::::::::::::::::::::::::::::::::::::::*

*:::::::::::::::::::::::::::::::::::::::::::::::::::::::::::::::::::::::::::*
e|-15-----17------|-19-----20------|-12-------------|-------------0s-|
B|---17-----17----|---17-----17----|---13-----------|----------------|
G|----------------|----------------|----------------|----------------|
D|----------------|----------------|----------------|----------------|
A|----------------|----------------|----------------|----------------|
E|----------------|----------------|----------------|----------------|
/// Guitar 1
\ Guitar 2 (Main)
e|-12-----14------|-15-----17------|-8-------8------|--------8-------|
B|---12-----12----|---12-----12----|---5-------5----|------5---5-----|
G|----------------|----------------|-----5-------5--|----5-------5s0-| 
D|----------------|----------------|----------------|----------------|
A|----------------|----------------|----------------|----------------|
E|----------------|----------------|----------------|----------------|
:::::::::::::::::::::::::::::::::::::::::::::::::::::::::::::::::::::::::::::
e|-12-------------|----------------|
B|---13-----------|----------------|
G|-----12---------|--*6*-FILL-*6*--|
D|----------------|--*6*-FILL-*6*--|
A|----------------|----------------|
E|----------------|----------------|
/// Guitar 1
\ Guitar 2 (Main)
e|-0---------0----|-0----------0---|-0-7-----7-0-----|-------0---------|
B|---1---------1--|---3----------3-|-----0-------0---|-----0---0-------|
G|-----0----------|-----2----------|-------0-------0-|---0-------0-----|
D|----------------|----------------|-----------------|-----------------|
A|----------------|----------------|-----------------|-----------------|
E|----------------|----------------|-----------------|-0-----------3-2-|

x x x x x x x x x x x x x x x x x x x x x x x x x x x x x x x x x x x x x
e|--------0-------|--------0-------|*--------0-------|--------0----7--*|
B|------0---0-----|------0---0-----|*------0---0-----|------0---0-----*|
G|----0-------0---|----0-------0---|*----0-------0---|----0-----------*|
D|----------------|----------------|*----------------|----------------*|
A|----------------|----------------|*----------------|----------------*|
E|-0--------------|-0--------------|*-0--------------|-0--------------*|
y el final...
  Em
e|*-7------7p0-----|(0)--7--8-7h8s5-|--7---5p3s2--0--*|
B|*---0----0---0---|-----0--0-------|--0-------------*|
G|*-----0--------0-|---0------------|----------------*|
D|*----------------|----------------|----------------*|
A|*----------------|----------------|----------------*|
E|*-0--------------|-0--------------|----------------*|


Que te parecio? Calificalo con estrellas!!

Rating: 6.8/10 (97 votos)

Este fichero es trabajo propio de su transcriptor y representa su interpretación personal de la canción. El material contenido en esta página es para exclusivo uso privado, por lo que se prohibe su reproducción o retransmisión, así como su uso para fines comerciales.


Comentario de cokexmaster
estube como casi todo un mes asiendo esta cansion y la traduje de español a ingles todabie me faltan algunas cosas pero eso es lo q tengo asta ahora despues mando lo q falta
Deja tus comentarios:

Letras de METALLICA
Letras de canciones | Musica Independiente