Acordes y tablaturas para guitarra

Acordes y Tablaturas
Usuario: Password:

Buscar:
Acordes y Tablaturas >> Letra J >> Acordes de Juanes >> Me Enamora (5)
Tablatura de Me Enamora, Juanes

Me Enamora (5)

Juanes






Me Enamora

Esta cancion es una obra de arte musicalmente hablando
es de las mejores de este artista, y va para una persona muy especial.

A= LA
B= SI
C= DO
D= RE
E= MI
F= FA
G= SOL

(En esta parte es un rasgeo suave a partir de la 4º cuerda)
              ↓            ↓
E|------------------------------------------------
B|----5-5-5-5------5-5-5-5------------------------
G|---4-7-6-4--4---4-7-6-4--4-------4-7-6--7-4-----
D|------------5------------5----5-7----------7-5--
A|-----------------------------7----------------7-
E|------------------------------------------------



E|-------------
B|-------------
G|---9-7-9-7---
D|--------9-7-5     Esta parte se repite 4 veces
A|-------------
E|-------------


Cada blanco de mi mente
Se vuelve color con verte
Y el deseo de tenerte
Es más fuerte, es más fuerte
Sólo quiero que me lleves

De tu mano por la senda
Y atravesar el bosque
Que divide nuestras vidas
C ---------- G----------Am----------------C D
Hay tantas cosas que me gustan hoy de ti…




CORO
-------G
Me enamora que me hables con tu boca
------D
Me enamora que me eleves hasta el cielo
-----C--------------------------G
Me enamora que de mi sea tu alma soñadora
----G----D7------Em
Esperanza de mis ojos
------------------------D
Sin ti mi vida no tiene sentido
-------------------------C
Sin ti mi vida es como un remolino
------------------D------------C
De cenizas que se van oh oh oh oh
--------------------D
Volando con el viento…


Solo de guitarra
(bueno de este pedazo no estoy seguro
si es asi pero intentelo y juzguen ustedes)

E|------------------------------------------------
B|----5-5-5-5------5-5-5-5------------------------
G|---4-7-6-4--4---4-7-6-4--4-------4-7-6--7-4-----
D|------------5------------5----5-7----------7-5--
A|-----------------------------7----------------7-
E|------------------------------------------------

E|-------------
B|-------------
G|---9-7-9-7---
D|--------9-7-5
A|-------------
E|-------------

E |---------------------------------------...
B |--8b10r8-------------------------------...
G |---------9-7-----------------------7---...
D |-------------9-7-5-------5---5-7-9---9-...
A |-------------------7-5-7---7-----------...
E |---------------------------------------...

E |---------------------------------------...
B |------------------------8---8-10-12-10-...
G |----------------7---7-9---9------------...
D |--------5---5-7---9--------------------...
A |--7-5-7---7----------------------------...
E |---------------------------------------...

E |--10-----10-----10-----10-----10----15-...
B |-----/12----/12----/12----/12----------...
G |---------------------------------------...
D |---------------------------------------...
A |---------------------------------------...
E |---------------------------------------...

E |-----12-15----12-15-17-15-12----12-----...
B |--15-------15----------------15----15-1...
G |---------------------------------------...
D |---------------------------------------...
A |---------------------------------------...
E |---------------------------------------...

E |---------------------------------------...
B |--15-12----12---------------12-10-12-10...
G |--------14----14-12-9--9-12------------...
D |---------------------------------------...
A |---------------------------------------...
E |---------------------------------------...

E |---------------------------------------...
B |--12-10-12-10-12-10--------------------...
G |--------------------9-12-9-------------...
D |---------------------------9-7-9-7-5---...
A |-------------------------------------7-...
E |---------------------------------------...

E |---------------------------------------...
B |---------------------------------------...
G |--------7---7-7-9-9-12-----------------...
D |--5-7-9---9----------------------------...
A |---------------------------------------...
E |---------------------------------------...

Yo no sé si te merezco
Sólo sé que aún deseo
Que le des luz a mi vida
En los días venideros

Léeme muy bien los labios
Te lo digo bien despacio
Por el resto de mis días
Quiero ser tu compañía


C------------G-----------Am-----------... D
Hay tantas cosas que me gustan hoy de ti…


CORO
--------G
Me enamora que me hables con tu boca
------D
Me enamora que me eleves hasta el cielo
------C -------------------------G
Me enamora que de mi sea tu alma soñadora
------G-----D7------Em
Esperanza de mis ojos
------------------------D
Sin ti mi vida no tiene sentido
------------------------C
Sin ti mi vida es como un remolino
----------------D----------C
De cenizas que se van oh oh oh oh 
--------------------D
Volando con el viento…


Que te parecio? Calificalo con estrellas!!

Rating: 4.1/10 (71 votos)

Este fichero es trabajo propio de su transcriptor y representa su interpretación personal de la canción. El material contenido en esta página es para exclusivo uso privado, por lo que se prohibe su reproducción o retransmisión, así como su uso para fines comerciales.


Comentario de Rafa0304
Esta cancion es una obra de arte musicalmente hablando es de las mejores de este artista, y va para una persona muy especial.
Deja tus comentarios:

Letras de Juanes
Letras de canciones | Musica Independiente