Acordes y tablaturas para guitarra

Acordes y Tablaturas
Usuario: Password:

Buscar:
Acordes y Tablaturas >> Letra A >> Acordes de Alex ubago >> A gritos de esperanza (5)
Tablatura de A gritos de esperanza, Alex ubago

A gritos de esperanza (5)

Alex ubago






q tal esta es mi primera trancripcion q mando y espero no tenga
muchos herrores, he visto las demas y algunas suenan bien pero en otras no tienen ni idea
bueno bamos a al grano

intro

Gr1

e/--------------------------------------------------------------------------------------------
b/-0h2/2----2h4/4---------4h5/5----5h7/7---------9h11/11----11h12/12----12p11----7-7/9-9------
g/--------------------------------------------------------------------------------------------
d/--------------------------------------------------------------------------------------------
a/--------------------------------------------------------------------------------------------
E/--------------------------------------------------------------------------------------------

Gr2

e/-------------------3--------3-------------2--------2--------------------------------0----
b/----------------3-----3--------3-------3-----2--------3--------0--------3--------1-------
g/-------------0-----------0----------2-----------2-----------0--------4--------0----------
d/----------0-----------------------0----------------------2--------4--------2-------------
a/-----------------------------------------------------------------------------------------
E/-----------------------------------------------------------------------------------------

Gr1

e/--------------------------------------------------------------------------------------
b/--------------------------------------------------------------------------------------
g/--7h9p7-5-4---------------5h7p5-4-2--------------0---2---4---2---0--------------------
d/---------------------------------------------------------------------4---4--5--2------
a/--------------------------------------------------------------------------------------
E/--------------------------------------------------------------------------------------

Gr2

e/-------------------3--------3-------------2--------2-----3---2---0---------------------0--
b/----------------3-----3--------3-------3-----2--------3--------------3---3---1-----1------
g/-------------0-----------0----------2-----------2-----------------------------------------
d/----------0-----------------------0----------------------2---0---2------------------------
a/---------------------------------------------------------------------2---2---3------------
E/------------------------------------------------------------------------------------------



       A pesar        de  que  la   luna          no     brille              mañana
e/-------------------3--------3-------------2--------2--------------------------------0----
b/----------------3-----3--------3-------3-----2--------3--------0--------3--------1-------
g/-------------0-----------0----------2-----------2-----------0--------4--------0----------
d/----------0-----------------------0----------------------2--------4--------2-------------
a/-----------------------------------------------------------------------------------------
E/-----------------------------------------------------------------------------------------

  me  dara igual,   solo   verte   reír es lo que me hace feliz; mi alma
e/-------------------3--------3-------------2--------2--------------------------------0----
b/----------------3-----3--------3-------3-----2--------3--------0--------3--------1-------
g/-------------0-----------0----------2-----------2-----------0--------4--------0----------
d/----------0-----------------------0----------------------2--------4--------2-------------
a/-----------------------------------------------------------------------------------------
E/-----------------------------------------------------------------------------------------


   me dará igual,   solo    verte  reír es lo q´ me hace feliz;            mi alma
e/-------------------3--------3-------------2--------2--------------------------------0----
b/----------------3-----3--------3-------3-----2--------3--------0--------3--------1-------
g/-------------0-----------0----------2-----------2-----------0--------4--------0----------
d/----------0-----------------------0----------------------2--------4--------2-------------
a/-----------------------------------------------------------------------------------------
E/-----------------------------------------------------------------------------------------

     y es verdad que una mirada distinta o algún gesto más frío;            se clava,
e/-------------------3--------3-------------2--------2--------------------------------0----
b/----------------3-----3--------3-------3-----2--------3--------0--------3--------1-------
g/-------------0-----------0----------2-----------2-----------0--------4--------0----------
d/----------0-----------------------0----------------------2--------4--------2-------------
a/-----------------------------------------------------------------------------------------
E/-----------------------------------------------------------------------------------------
                            Bm
      en mi pecho  plaga del desconcierto,   pero amor;   ahí   está  la  magia.
e/-------------------3--------3-------------2--------2-----3---2---0---------------------0--
b/----------------3-----3--------3-------3-----2--------3--------------3---3---1-----1------
g/-------------0-----------0----------2-----------2-----------------------------------------
d/----------0-----------------------0----------------------2---0---2------------------------
a/---------------------------------------------------------------------2---2---3------------
E/------------------------------------------------------------------------------------------

          Ahora que  te  veo niña  ya t´echo d´menos no imagino mis heridas si algún día
e/-------------------0--------0--------------2--------2--------------3--------2--------------
b/----------------1-----1--------1--------3-----2--------3--------3-----3--------3-----------
g/-------------0-----------0-----------2-----------2-----------0-----------2-----------------
d/----------2-----------------------0----------------------0--------------------------------
a/------------------------------------------------------------------------------------------
E/------------------------------------------------------------------------------------------


         te vas lejos.            quería...
e/-------------------0--------0--------------0--------0--------------0--------0-------------
b/----------------0-----0--------0--------1-----1--------1--------1-----1--------1----------
g/-------------0-----------0-----------0-----------0-----------0-----------0----------------
d/----------2-----------------------2-----------------------2-------------------------------
a/------------------------------------------------------------------------------------------
E/------------------------------------------------------------------------------------------

     por esto
e/-------------------2--------2-------------2--------2--------
b/----------------3-----3--------3-------3-----2--------3-----
g/-------------2-----------2----------2-----------2-----------
d/----------0-----------------------0-------------------------
a/------------------------------------------------------------
E/------------------------------------------------------------

Coro
G              	 D
Si preguntan por mí,
                     e/----------------------
                     b/---3-5-3-2------------
                     g/----------------------
                     d/----------------------
                     a/----------------------
                     E/----------------------
Em                 Bm
no les digas donde fui,
      c                    d
que tu alma sea fuerte cuando mires hacia el frente,
      G            D           Em
no recuerdes todo lo que no te di.


          C                       D
Es que quedan tantas cosas por contarte y que me cuentes
        G
tantos ratos y pasiones por vivir
         C
    a tu lado...
e/----------------------------
b/----8--7----------7-7/8-8---
g/----9--7--9-------7-7/9-9---
d/----------8-----------------
a/----------------------------
E/----------------------------

       D
    o mi vida
e/----------------------------
b/----8--7--5-------7-7/8-8---
g/----9--7--5-------7-7/9-9---
d/----------------------------
a/----------------------------
E/----------------------------

        G
    a tu lado

SOLO

             G             D                 Em          Bm
e/-------7-8-10----8-7-------------------7-8-7--------------------
b/-----8------------------10/12-10----10-------------7-8-10-------
g/---7--------------------------------------------9---------7-----
d/----------------------------------------------------------------
a/----------------------------------------------------------------
E/----------------------------------------------------------------

             c                      D           G     D      Em
e/-----------8-8----8-8---7-5---7-----------------7-----7---------
b/-------------------------------------------7--8---8-7---7--5----
g/------7-9--9-9----9-9---7-7-7-----7-7-7--9----7-----7------4----
d/----------------------------------------------------------------
a/----------------------------------------------------------------
E/----------------------------------------------------------------

              C                   D
e/------------------------------------------------------------------------7-8-10-8-7--------
b/------8--7--5----7-7/8-8--------8-7------7-7/8-8-----------------7-8-10------------10-8---
g/------9--7--5----7-7/8-8--------9-7-9----7-7/9-9-------------7-9--------------------------
d/------------------------------------10----------------7-9-10------------------------------
a/------------------------------------------------------------------------------------------
E/------------------------------------------------------------------------------------------

         Y ojalá,   que   nuestros    ojos           si    brille...         mañana
e/-------------------3--------3-------------2--------2--------------------------------0----
b/----------------3-----3--------3-------3-----2--------3--------0--------3--------1-------
g/-------------0-----------0----------2-----------2-----------0--------4--------0----------
d/----------0-----------------------0----------------------2--------4--------2-------------
a/-----------------------------------------------------------------------------------------
E/-----------------------------------------------------------------------------------------

   y que tu voz siga pidiendo me a gritos    amor      a   gritos de esperanza.
e/-------------------3--------3-------------2--------2-----3---2---0---------------------0--
b/----------------3-----3--------3-------3-----2--------3--------------3---3---1-----1------
g/-------------0-----------0----------2-----------2-----------------------------------------
d/----------0-----------------------0----------------------2---0---2------------------------
a/---------------------------------------------------------------------2---2---3------------
E/------------------------------------------------------------------------------------------


           Ahora q´ t´tengo no pienso perder el tiempo, ni peredrme por mi absurdo ego
e/-------------------0--------0--------------2--------2--------------3--------2--------------
b/----------------1-----1--------1--------3-----2--------3--------3-----3--------3-----------
g/-------------0-----------0-----------2-----------2-----------0-----------2-----------------
d/----------2-----------------------0----------------------0--------------------------------
a/------------------------------------------------------------------------------------------
E/------------------------------------------------------------------------------------------

         ni un solo momento.....    se esfuma
e/-------------------0--------0--------------0--------0--------------0--------0-------------
b/----------------0-----0--------0--------1-----1--------1--------1-----1--------1----------
g/-------------0-----------0-----------0-----------0-----------0-----------0----------------
d/----------2-----------------------2-----------------------2-------------------------------
a/------------------------------------------------------------------------------------------
E/------------------------------------------------------------------------------------------

         el miedo...
e/-------------------2--------2-------------2--------2--------
b/----------------3-----3--------3-------3-----2--------3-----
g/-------------2-----------2----------2-----------2-----------
d/----------0-----------------------0-------------------------
a/------------------------------------------------------------
E/------------------------------------------------------------

Coro
G              	 D
Si preguntan por mí,
                     e/----------------------
                     b/---3-5-3-2------------
                     g/----------------------
                     d/----------------------
                     a/----------------------
                     E/----------------------
Em                 Bm
no les digas donde fui,
      c                    d
que tu alma sea fuerte cuando mires hacia el frente,
      G            D           Em
no recuerdes todo lo que no te di.


       C                             D
Que tu luz brille por siempre porque tu te lo mereces
      G             D         Em
y perdona si algún día pretendí,
         C
 que no fueras
e/----------------------------
b/----8--7----------7-7/8-8---
g/----9--7--9-------7-7/9-9---
d/----------8-----------------
a/----------------------------
E/----------------------------

   D
tú misma.
e/----------------------------
b/----8--7----------7-7/8-8---
g/----9--7--9-------7-7/9-9---
d/----------8-----------------
a/----------------------------
E/----------------------------


G                C
Si preguntan por ti,
                     e/----------------------
                     b/---8-8-10-10------------
                     g/----------------------
                     d/----------------------
                     a/----------------------
                     E/----------------------
Em                D
solo diré que te vi
       C                       D
en mis sueños una noche y solo sueño desde entonces
         G       D            Em
para verme cada día junto a ti.
         C                        D
Es que quedan tantas cosas por contarte y que me cuentes
        G        D             Em
tantos ratos y pasiones por vivir

         C
    a tu lado...
e/----------------------------
b/----8--7----------7-7/8-8---
g/----9--7--9-------7-7/9-9---
d/----------8-----------------
a/----------------------------
E/----------------------------

       D
    o mi vida
e/----------------------------
b/----8--7--5-------7-7/8-8---
g/----9--7--5-------7-7/9-9---
d/----------------------------
a/----------------------------
E/----------------------------

        G
   a tu lado

Final
e|--------------5--3--2------3--3-----2--2-----------------------0---
B|-8-8-10-8-7---7--5--3—----5---5----3---3----------3-----3-----1----
G|-------------------------4----4---2----2--------4-----4-----0------
D|----------------------------------------------4-----4-----2--------
A|-------------------------------------------------------------------
E|-------------------------------------------------------------------

Fuente original: LaCuerda
Colaborador original: Jose luis sandoval [thoshesho1]

Que te parecio? Calificalo con estrellas!!

Rating: 5.5/10 (108 votos)

Este fichero es trabajo propio de su transcriptor y representa su interpretación personal de la canción. El material contenido en esta página es para exclusivo uso privado, por lo que se prohibe su reproducción o retransmisión, así como su uso para fines comerciales.


Deja tus comentarios:

Letras de Alex ubago
Letras de canciones | Musica Independiente