Acordes y tablaturas para guitarra

Acordes y Tablaturas
Usuario: Password:

Buscar:
Acordes y Tablaturas >> Letra D >> Acordes de Diego torres >> Color esperanza (4)
Acordes de Color esperanza, Diego torres

Color esperanza (4)

Diego torres






Sin lugar a duda esta version(unplugged) es 20 veces mejor q
cualquier version anterior. La primera parte solo toquenla
con arpegio espontaneo escepto algunas partes q estan indicadas
(sonara mejor así), seria bueno q la sacaran escuchando la cancion
en su version unplegged claro. Esta cancion va dedicada a Karla Cortez,
por el contenido de esta cancion; te quiero amiga.


“PARTE 1: LENTA(todo arpegio)”


InTrO 1:

---------10--------10---------10-7-------------------
-----8------8--8------8----8-------8-----10----------
-----9-9-------9-9---------7---------7--9------------
----10---------9-------------------------------------
-----------------------------------------------------
-----------------------------------------------------



G                Bm7
Se que hay en tus ojos
      B7     Em
con solo mirar
             C¡         C9¡
Que estas cansado de andar
        G
y de andar
      -----------
      -----3-----
      ----0-0----
      -----------
      -----------
      --3--------

       E$          Am
y caminar, girando siempre
     -----------
     -----3-----
     ----0-0----
     -----------
     -----------
     --2--------

    C    D
en un lugar


 G            Bm7
Se que las ventanas
    B7       Em
se pueden abrir
           C¡     C9¡       G
cambiar el aire depende de ti
                          -----------
                          -----3-----
                          ----0-0----
                          -----------
                          -----------
                          --3--------

        E$          Am
te ayudará, vale la pena
      -----------
      -----3-----
      ----0-0----
      -----------
      -----------
      --2--------

  C       D
una vez mas


EnTrAdA Al CoRo:

---3-5-------
--3--7-------
-------------
-------------
-------------
-------------

CoRo:

               G
Saber que se puede
    D         Em
querer que se pueda
              C
quitarse los miedos
  Am        D
sacarlos afuera
             G
Pintarse la cara
  D       Em
color esperanza
            C
tentar al futuro
    Am      D
con el corazón


InTeRmEdIo: G(1t)-Bm7(1t)-C(1/2t)-Am(1/2t)-D(un rasgueo)
            1t : un tiempo
            1/2t : medio tiempo

G           Bm7
Es mejor perderse
    B7         Em
que nunca embarcar
         C¡
mejor tentarse
    C9¡          G
a dejar de intentar
               -----------
               -----3-----
               ----0-0----
               -----------
               -----------
               --3--------
          E$
aunque ya ves...
        -----------
        -----3-----
        ----0-0----
        -----------
        -----------
        --2--------

             Am    C     D
que no estan fácil empezar


G             Bm7
Sé que lo imposible
     B7      Em
se puede lograr
           C¡
que la tristeza
       C9¡     G
algún día se irá
             -----------
             -----3-----
             ----0-0----
             -----------
             -----------
             --3--------

        E$
y así será...
      -----------
      -----3-----
      ----0-0----
      -----------
      -----------
      --3--------

         Am       C     D
la vida cambia y cambiará


      C9        E9     G
Sentirás que el alma vuela
        C     Am     D
Por cantar una vez más.


(Luego de la percusión empieza la parte 2)

“PARTE 2: RAPIDA(todo rasgueo)”


CoRo:
               G
Saber que se puede
    D         Em
querer que se pueda
              C
quitarse los miedos
  Am        D
sacarlos afuera
             G
Pintarse la cara
  D       Em
color esperanza
            C
tentar al futuro
    Am      D
con el corazón        (x2)



      E9¡    E9

Fuente original: LaCuerda
Colaborador original: César Ortiz Rojas [[email protected]]


Que te parecio? Calificalo con estrellas!!

Rating: 5.8/10 (80 votos)

Este fichero es trabajo propio de su transcriptor y representa su interpretación personal de la canción. El material contenido en esta página es para exclusivo uso privado, por lo que se prohibe su reproducción o retransmisión, así como su uso para fines comerciales.


Deja tus comentarios:

Letras de Diego torres
Letras de canciones | Musica Independiente