Acordes y tablaturas para guitarra

Acordes y Tablaturas
Usuario: Password:

Buscar:
Acordes y Tablaturas >> Letra E >> Acordes de EAGLES >> HOteL CaLifOrNIa (4)
Tablatura de HOteL CaLifOrNIa, EAGLES

HOteL CaLifOrNIa (4)

EAGLES






K ONDA A TODOS, ESTA ES MI PRIMERA ROLA ESPERO Y LES GUSTE.

LOS PARENTESIS INDICAN EL ACORDE QUE SE TOCA PRIMERO.

INTRO:
  (Bm)                             (A)
e:--------------------------------|----------------------------|
B:----------------3-5-7-7h8-7-5/7-|----------------------------|
G:--4-4h5-4-3h4-5-----------------|------7-6-------------------|
D:--------------------------------|--7-9-------7h9-7-----------|
A:--------------------------------|----------9-------9\5-5/7-7-|
E:--------------------------------|----------------------------|

EL RASGUEO DEL ACORDE (Em) ES DE ABAJO HACIA ARRIBA.

  (Em)                                asi se repite a tu gusto
e:-----0----0----0----0-----7----10---7----10---10---7----10---|
B:----0----0----0----0-----8----8----8----8----8----8----8-----|
G:---0----2----4----7-----9----9----9----9----9----9----9------|
D:--2----4----5----9-------------------------------------------|
A:-------------------------------------------------------------|
E:-------------------------------------------------------------|

e:-----------9-10-9-10-10/14------|
B:--12-11-12----------------------|
G:--------------------------------|
D:--------------------------------|
A:--------------------------------|
E:--------------------------------|
 
ESTO ES DESPUES DE LOS TAMBORES

  (Bm)                             (A)
e:----2h3-2---2-------------------|----------------------------|
B:----------5---3-5-3-------------|------3-2---2-----------5-8-|
G:--4-----------------4-2/4-------|--2-4-----4---2-4---6-7-----|
D:--------------------------------|----------------------------|
A:--------------------------------|----------------------------|
E:--------------------------------|----------------------------|

e:----------7-9-10-9-10/12-12-----|-------0----0----0----0-----|
B:--7--8-10-----------------------|-------0----0----0----0-----|
G:--------------------------------|-------0----2----4----7-----|
D:--------------------------------|-----2----4----5----9-------|
A:--------------------------------|----------------------------|
E:--------------------------------|----------------------------|

e:--7-0-7-10-12-10-7-9h10-9-7-6--------------------------------|
B:------------------------------8-7-7-7-8-7---7----------------|
G:------------------------------------------9---7-6------------|
D:--------------------------------------------------9-8--------|
A:-------------------------------------------------------------|
E:-------------------------------------------------------------|

!!ATENCION!! ESTO SIGUE DESPUES DEL ARPEGIO.

e:-------------------------------------------------------------|
B:-------------------------------------------------------------|
G:-------------------------------------------------------------|
D:-------------------------------------------3/5-0-2-4-5-4h5-4-|
A:--5--7--9--7--5/4-4---4--5--7--2---2--4-5-0------------------|
E:-------------------------------------------------------------|

BUENO ESO ES TODO OJALA LES PUEDA SERVIR, PERO SI TIENEN ALGUNA DUDA AKI LES DEJO MI CORREO [email protected]

Que te parecio? Calificalo con estrellas!!

Rating: 7.3/10 (1094 votos)

Este fichero es trabajo propio de su transcriptor y representa su interpretación personal de la canción. El material contenido en esta página es para exclusivo uso privado, por lo que se prohibe su reproducción o retransmisión, así como su uso para fines comerciales.


Deja tus comentarios:
Letras de canciones | Musica Independiente