Acordes y tablaturas para guitarra

Acordes y Tablaturas
Usuario: Password:

Buscar:
Acordes y Tablaturas >> Letra A >> Acordes de Aerosmith >> Dream on (4)
Tablatura de Dream on, Aerosmith

Dream on (4)

Aerosmith






Primeira parte
e+-4-----4----|-3-----3----|-4-----4----|-3-----3----|
B+-6-----6----|-4-----4----|-3-----3----|-2-----2----|
G+----5-----5-|----5-----5-|----5-----5-|----5-----5-|
D+------------|------------|------------|------------|
A+------------|------------|------------|------------|
E+------------|------------|------------|------------|

|-4-----4----|-6-----6----|--8-----8----|--8---------|
|-6-----6----|-8-----8----|--9-----9----|--9---------|
|----5-----5-|----5-----5-|-------------|------------|
|------------|------------|----10----10-|------------|
|------------|------------|-------------|------------|
|------------|------------|-------------|------------|
Segunda parte
|-4-----4----|-3-----3----|--4-----4----|-3-----3----|
|-6-----6----|-4-----4----|--3-----3----|-2-----2----|
|----5-----5-|----5-----5-|-----5-----5-|----5-----5-|
|------------|------------|-------------|------------|
|------------|------------|-------------|------------|
|------------|------------|-------------|------------|

|-4-----4----|-6-----6----|--8-----8----|-6-4-----4-|
|-6-----6----|-8-----8----|--9-----9----|-8-6-----6-|
|----5-----5-|----5-----5-|-------------|-------5----|
|------------|------------|----10----10-|------------|
|------------|------------|-------------|------------|
|------------|------------|-------------|------------|

|--8-----8----|-6-4-----4-|-3-----3----|-3-----3----|
|--9-----9----|-8-6-----6-|-2--1--2--1-|-2--1--2--1-|
|-----7-----7-|-------7----|------------|------------|
|-------------|------------|------------|------------|
|-------------|------------|------------|------------|
|-------------|------------|------------|------------|

|-3-------3-------|-3-------3-----------|-3-----------3---------|--3--------|
|-2---1---2---1---|-2---1---2----1------|-2-----1-----2-----1---|--2--------|
|-----------------|---------------------|-----------------------|-----------|
|-----------------|---------------------|-----------------------|-----------|
|-----------------|---------------------|-----------------------|-----------|
|-----------------|---------------------|-----------------------|-----------|
| (Guitarra 2)    |                     |                       |           |
|-----------------|---------------------|-----------------------|-----------|
|-----------5-6/8-|-6-8/9-8-9/11-9h11p9-|-8h9p8-6h8p6-4h6p4-21-|-1/11------|
|-6p5-3-5h6-------|---------------------|-----------------------|-----------|
|-----------------|---------------------|-----------------------|-----------|
|-----------------|---------------------|-----------------------|-----------|
|-----------------|---------------------|-----------------------|-----------|


 1° verso: 
 Fm        Fm7          Fm6            Bbm6	  
 Ev'ry     time that I  look in the  mirror
 All these lines on my  face gettin' clearer
           The past is  gone
 It went   by like      dusk to      dawn       

   Fm           Fm7          Fm6          Bbm6
e+-4-----4----|-3-----3----|-4-----4----|-3-----3----|
B+-6-----6----|-4-----4----|-3-----3----|-2-----2----|
G+----5-----5-|----5-----5-|----5-----5-|----5-----5-|
D+------------|------------|------------|------------|
A+------------|------------|------------|------------|
E+------------|------------|------------|------------|


  Fm		  C   Fm		    Csus4           Bmb C Bmb C  Bmb C Bmb C  Bmb C Bmb C 
  Isn't that the way  ev'rybody's got their dues in life to pay? 

  Fm           C            Fm           Csus4
|-4-----4----|-3-----3----|-4-----4----|-3-----3----|
|-6-----6----|-5-----5----|-6-----6----|-6-----6----|
|----5-----5-|----5-----5-|----5-----5-|----5-----5-|
|------------|------------|------------|------------|
|------------|------------|------------|------------|
|------------|------------|------------|------------|

 Bmb C Bmb C  Bmb C Bmb C  Bmb C Bmb C  Bmb C Bmb C
|-3-----3----|-3-----3----|-3-----3----|-3-----3----|
|-2--1--2--1-|-2--1--2--1-|-2--1--2--1-|-2--1--2--1-|
|------------|------------|------------|------------|
|------------|------------|------------|------------|
|------------|------------|------------|------------|
|------------|------------|------------|------------|


  Refrão:  
  Fm          Eb               Db                 Eb
  I know      nobody knows     where it comes and where it goes
  I know it's ev'ryvody's sin; you got to lose to know how to win  (Primeira parte da introdução)


  2°verso:  
  Fm            Fm7          Fm6            Bbm6
  Half my       life's in    books' written pages  
  Lived and     learned from fools and from sages
              You know it's true
  Fm            C            Fm             Csus4    Bmb C Bmb C  Bmb C Bmb C  Bmb C Bmb C
  All these     things       come back to   you.


  Refrão: 
  Fm            	    Eb                  
  Sing with me, 	    sing for the years. 
  Db			    Eb
  Sing for the laughter and sing for the tears.
  Fm			    Eb
  Sing with me if it's	    just for today,
  Dm7b5			    Dbmaj7                  Bmb C Bmb C  Bmb C Bmb C  Bmb C Bmb C 
  Maybe tomorrow the        good Lord will take you away


SOLO:

|---4-----4-----6-|-----6-----6-----|-8-----8-----8/--|-13--------------|
|-----6-----6-----|-6-----6-----6---|---6-----6-------|-----------------|
|-5-----5-----5---|---5-----5-----5-|-----5-----5-----|-----------------|
|-----------------|-----------------|-----------------|-----------------|
|-----------------|-----------------|-----------------|-----------------|
|-----------------|-----------------|-----------------|-----------------|

|-8-----8---------|---8-------------|-------8---------|-----------------|
|-----6-----6-----|-6-----6---6-----|-6---6---6---8---|-8b9-------------|
|-----------------|-----------------|-----------------|-----------------|
|-----------------|-----------------|-----------------|-----------------|
|-----------------|-----------------|-----------------|-----------------|
|-----------------|-----------------|-----------------|-----------------|

|---4-----4-----4-|-----6-----6-----|-8-----8-----8/--|-13--------------|
|-----------6-----|-6-----------6---|---6-----6-------|-----------------|
|-5-----------5---|---5-----5-----5-|-----5-----5-----|-----------------|
|-----------------|-----------------|-----------------|-----------------|
|-----------------|-----------------|-----------------|-----------------|
|-----------------|-----------------|-----------------|-----------------|

|-8-----8---------|---8-------------|
|-----6-----6-----|-6-----6---6-----|
|-----------------|-----------------|
|-----------------|-----------------|
|-----------------|-----------------|
|-----------------|-----------------|


  Refrão: 
  Fm            	    Eb                  
  Sing with me, 	    sing for the years. 
  Db			    Eb
  Sing for the laughter and sing for the tears.
  Fm			    Eb
  Sing with me if it's	    just for today,
  Dm7b5			    Dbmaj7                  Bmb C Bmb C  Bmb C Bmb C  Bmb C Bmb C 
  Maybe tomorrow the        good Lord will take you away

  Bb        C         Db            Eb                           riff1
  Dream on, dream on, dream on,     dream yourself a dream come  true.

Riff 1

|-11br-----11br------------|--11b-11b-11b-11b--------|
|--------------------------|-------------------------|
|--------------------------|-------------------------|
|--------------------------|-------------------------|

|-r11-11---9---------------|-------------------------|
|-------------11--9--------|-------------------------|
|-------------------10--8--|-------------------------|
|--------------------------|----10-9-8-6-------------|
|--------------------------|---------------8---------|
|--------------------------|-------------------------|

 Bb        C         Db            Eb                           riff2
 Dream on, dream on, dream on, and dream until your dream comes true.

Riff 2
|-----------------|-------------------|-----------4-4---|-4-6-6-6-6-6-6---|
|-----------------|-------------4-----|-6-4-4---6-----6-|-----------------|
|-----------1-----|-3-1---1-3/5-----5-|-------5---------|-----------------|
|-3-1---1-3-----3-|-----3-------------|-----------------|-----------------|
|-----3-----------|-------------------|-----------------|-----------------|
|-----------------|-------------------|-----------------|-----------------|

  F	    G	      Ab	Bb
  Dream on, dream on, dream on, ah   

  Bbm C Bbm C Bbm C Bbm C | Bbm C Bbm C Bbm C Bbm C    



Que te parecio? Calificalo con estrellas!!

Rating: 5.4/10 (87 votos)

Este fichero es trabajo propio de su transcriptor y representa su interpretación personal de la canción. El material contenido en esta página es para exclusivo uso privado, por lo que se prohibe su reproducción o retransmisión, así como su uso para fines comerciales.


Deja tus comentarios:

Letras de Aerosmith
Letras de canciones | Musica Independiente