Enviado por: Anonimo
Agrandar Letra
Reducir Letra
Imprimir


Otras Versiones de Atravezando Todo Limte:




Hermetica, Atravezando Todo Limte

Aca les mando mi segunda transcripcion, ´´Atravesando Todo Limite´´ de Hermetica.
(Todos los acordes son acrdes 5°)


Intro

    B  B  D E  E   D F# D D   B  B  D E D F# E E  A
|-------------------------------------------------------------|
|-------------------------------------------------------------|
|---4--4--7-9--9---7-11-7-7---4--4--7-9-7-11-7-7--------------|
|---4--4--7-9--9---7-11-7-7---4--4--7-9-7-11-7-7--7-----------|
|-------------------------------------------------7-----------|
|-------------------------------------------------------------|
(Son solamente las quintas y octavas del acorde 5° que figura arriva).


Muletilla
|----------------------------------------------------------|
|----------------------------------------------------------|
|----------------------------------------------------------|
|----------------------------------------------------------|
|---5----4---------5---------------------------------------|
|-------------5----3---------------------------------------|


Intro (x4)

B                  D                A     B
A las montañas del noroeste argentino
 E            A
te dirigiste hermano
B                D              A              B
dejando grabado por siempre en mi corazon
E             A
aquel fuerte abrazo

G              D
donde mostraste tu intima conciencia
A               B   (muletilla)
de guerrero impecable
G                  D
que marcha firme a cumplir su destino
A                B
sin nada a nadie deber

Intro

Paso el tiempo i sin saber nada de vos
corrimos a buscarte,
soñe con verte libre a la luz del sol
Se que lo lograste

Mas solo fueron testigos,
esas inmensidades
historia triste fue verno vencidos
Y sin hallarte volver
tener que volver...

...A enfrentar caras de gente que no entiende
Y que con burlas justifican su ignorancia
olvidando que la pesadilla
suele hacerse realidad

¿y ahi que pasa...?
¿...Que es lo que pasa?


Solo de guitarra


Que el viento lleve esta cancion a tus oidos
salvando distancias
y que en tu estrella observes que aun sigo de pie
es mi esperanza

sigo intentando andar en el camino,
para el cual me formaste
y aunque sin vos se a tornado muy duro,
no me dejare venser
NO TE FALLARE!!!

Si es mi egoismo el que se revela a perderte
y mi alma no saber cual fue tu suerte,
hermano mio, solo resta decirte
que jamas te olvidare
tenlo precente...





Solo

|---------|-------------|-------------------------------------|
|---------|-------------|-------------------------------------|
|--7p6----|-------------|-----6-7-9-7-6-------6-7-9-7-6-------|
|------9--|---

Fuente original: LaCuerda
Colaborador original: juan [[email protected]]
Aviso: Este fichero es trabajo propio de su transcriptor y representa su interpretación personal de la canción. El material contenido en esta página es para exclusivo uso privado, por lo que se prohibe su reproducción o retransmisión, así como su uso para fines comerciales.

Califica esta canción


Comentarios en Facebook