Acordes y tablaturas para guitarra

Acordes y Tablaturas
Usuario: Password:

Buscar:
Acordes y Tablaturas >> Letra M >> Acordes de Mana >> Bendita tu luz (3)
Tablatura de Bendita tu luz, Mana

Bendita tu luz (3)

Mana






INTRO

I----------|---------|---------|-------------------|
I------3---|-----3---|-----3---|---------------0---|
I--------0-|-------2-|-------0-|-----0-------1-----|
I----0-----|---0-----|---4-----|---3-------4-------|
I----------|---------|---------|-2-------5---------|
I--3-------|-2-------|0--------|-------------------|


I----------|---------|---------|-------------------|
I------3---|-----3---|------3--|---------------0---|
I--------0-|-------2-|-----0---|-----0-------1-----|
I----0-----|---0-----|---4-----|---3-------4-------|
I----------|---------|-2-------|-2-------5---------|
I--3-------|-2-------|---------|-------------------|


          Bendito el lugar      y el motivo de estar ahí
I----------|------------|---------|-------------------|
I------3---|----------3-|------3--|----------------0--|
I-----0----|--------2---|-----0---|-------0------1----|
I----0-----|------0-----|---4-----|-----3------4------|
I----------|------------|-2-------|---2------5--------|
I--3-------|----2-------|---------|-------------------|


           Bendita la coincidencia
I-----------|-------------|---------0-----|-----------------|
I--------3--|----------3--|-------3---3---|-------------1---|
I------0----|--------2----|-----0-------0-|-----0-----0-----|
I----0------|------0------|---4-----------|---3-----4-------|
I-----------|-------------|-2-------------|-2-----5---------|
I--3--------|----2--------|---------------|-----------------|


         Bendito el reloj que nos puso puntual, ahí....
I------3------|---------2------|---------0------|--------------|
I--------3----|-------3---3----|-------3---3----|------------0-|
I-----0----0--|-----2-------2--|-----0-------0--|-----0-----1—-|
I---0---------|---0------------|---4------------|---2-----4----|
I-------------|----------------|-2--------------|-3-----5------|
I-3-----------|-2--------------|----------------|--------------|
 
        Bendita  sea  tuuu   presencia....
I------3------|---------2------|---------0------|--------------|
I--------3----|-------3---3----|-------3---3----|------------0-|
I-----0----0--|-----2-------2--|-----0-------0--|-----0-----1—-|
I---0---------|---0------------|---4------------|---2-----4----|
I-------------|----------------|-2--------------|-3-----5------|
I-3-----------|-2--------------|----------------|--------------|

Em       Bm             C      D
Bendito Dios por encontrarnos en el camino
Em             Bm        C         D
Y de quitarme esta soledad de mí destino.


CORO
            G   D
Bendita la luz
            Am          C
Bendita la luz de tu mirada
            G   D
Bendita la luz
            Am          C                G
Bendita la luz de tu mirada desde el alma.


1er  Solo:

 G          D   Em          C   D        G
I-----3-----2--|--0-0-0-2-3-5-3-5-7-8-10-7v-----|
I--------------|--------------------------------|
I-2/4---4/2----|--0-0-0-2-4-5-4-5-7-------------|
I—-------------|--------------------------------|
I--------------|--------------------------------|
I--------------|--------------------------------|

                       D             Em            C    D   G
e--7-8-10-7-8-10-10/12-10v---|-----7-5-5v-7-3v-5-2-------------|
B----------------------------|-----8-7-7v-8-5v-7-3-5-8v-7-5-3--|
G----------------------------|---7-----------------5-9v-7-5-4--|
D—---------------------------|---------------------------------|
A----------------------------|---------------------------------|
E----------------------------|---------------------------------|


G               D
Benditos ojos que me esquivaban,
Em           C
Simulaban desdén que me ignoraba,
G             D
Y de repente sostienes la mirada,
Em           C            D
Da ram di ri da ram di ri ri ri.


Em       Bm             C      D
Bendito Dios por encontrarnos en el camino
Em             Bm        C         D
Y de quitarme esta soledad de mí destino.


CORO
            G   D
Bendita la luz
            Am          C
Bendita la luz de tu mirada
            G   D
Bendita la luz
            Am          C                G
Bendita la luz de tu mirada desde el alma.


G                       D
Gloria divina de esta suerte, del Buen Tino
Am                           C             
De encontrarte justo ahí, en medio del camino.
Em                              Bm                  C
Gloria al cielo de encontrarte ahora llevarte mi soledad
                    Em    D               G
y coincidir en mi destino   en el mismo destino.

Segundo Solo:

 G              D                Am          C    D
e------------------------|----------------------------------|
B------------------------|----------5-8-7—10--10-8/-7/-5/-3-|
G-------4-7-5-4-5-4------|-----4-5-7---------9--9/-7/-5/-4--|
D—--0-5-------------7-7--|-5/7------------------------------|
A------------------------|----------------------------------|
E------------------------|----------------------------------|

  G           D           Am     C
e--------7-5-3-3-------5-|------------5---5-7--|
B-3-1-0--8-7-5-5-7-5h7---|-5-7-8--7-8---8------|
G-4-2-0----------7-------|---------------------|
D—-----------------------|---------------------|
A------------------------|---------------------|
E------------------------|---------------------|

   D
e--5-7-8-7-5-----------------------|
B-8----------8-10-8-7-5-7-5--------|
G---------------------------7-5-7--|
D—---------------------------------|
A----------------------------------|
E----------------------------------|

CORO
            G   D
Bendita la luz
            Am          C
Bendita la luz de tu mirada
            G   D
Bendita la luz
            Am          C                G
Bendita la luz de tu mirada desde el alma.

        G   D
Tu mirada oh oh  Bendita bendita bendita mirada
Am                 C           D
Bendita tu alma y bendita tu luz


|--0-0-0-2-3-5-3-5-7-8-10-7v--------|
|-----------------------------------|
|--0-0-0-2-4-5-4-5-7----------------|
        
G     D                Am
Tu mirada oh oh  Oh oh oh digo es
              C     D
tan bendita tu luz amor amor


e-----7-5-5v-7-3v-5-2-------------|
B-----8-7-7v-8-5v-7-3-5-8v-7-5-3--|
G---7-----------------5-9v-7-5-4--|
D---------------------------------|
A---------------------------------|
E---------------------------------|
        G     D
Tu mirada oh oh Bendito el reloj y bendito el lugar

Am                      C D
|--0-0-0-2-3-5-3-5-7-8-10-7v-------|
|----------------------------------|
|--0-0-0-2-4-5-4-5-7---------------|
Benditos tus besos cerquita del mar


        G       D
Tu mirada oh oh
          Am                 C D             G
Amor amor que bendita tu mirada tu mirada amor.






            


Que te parecio? Calificalo con estrellas!!

Rating: 6.9/10 (276 votos)

Este fichero es trabajo propio de su transcriptor y representa su interpretación personal de la canción. El material contenido en esta página es para exclusivo uso privado, por lo que se prohibe su reproducción o retransmisión, así como su uso para fines comerciales.


Deja tus comentarios:

Letras de Mana
Letras de canciones | Musica Independiente