Acordes y tablaturas para guitarra

Acordes y Tablaturas
Usuario: Password:

Buscar:
Acordes y Tablaturas >> Letra A >> Acordes de Alejandro fernandez >> Loco (2)
Tablatura de Loco, Alejandro fernandez

Loco (2)

Alejandro fernandez






Esta es, segun yo. La transcripcion de la cancion Loco de Alejandro fernandez.
Y se la dedico a la fan mas hermosa,talentosa y #1 de Alejandro.
Para ti Teresa que eres el motor que me impulsa para hacer mas cosas cada dia.    
 
e|------------13--13--11--11--10--10--8--8--7--7----------|
B|------------15--15--13--13--12--12--9--9--8--8----------|
G|--10--10------------------------------------------------|
D|--12--12----------------------------------9--9----------|
A|--------------------------------------------------------|
E|--------------------------------------------------------|


e|------------15--15--13--13--11--11--10--10--8--8--------|
B|------------16--16--15--15--13--13--12--12--8--8--------|
G|--12--12------------------------------------------------|
D|--13--13------------------------------------10-10-------|
A|--------------------------------------------------------|
E|--------------------------------------------------------|




e|-------10-11--|---------13--13---11--11--10--10---------|
B|----13--------|-----------------------------------------|
G|-12-----------|-12--12--14--14---12--12--10--10---------|
D|--------------|-13--13----------------------------------|
A|--------------|-----------------------------------------|
E|--------------|-----------------------------------------|




e|-----------11--11---10--10--8--8---------|
B|--11--11---------------------------------|
G|-----------12--12---10--10--8--8---------|
D|--12--12---------------------------------|
A|-----------------------------------------|
E|-----------------------------------------|



                                  ^
e|-----------10--10--8--8--6----6-5--------------------|
B|---10--10----------------------------8----------------|
G|-----------10--10--8--8--7-----------7----------------|
D|---10--10---------------------------------------------|
A|-------------------------------------8----------------|
E|------------------------------------------------------|


Bb
Loco

me dicen loco
                      Cm
porque hablo con las aves
        
y a los amigos 
                         Bb 
que me encuentro por la calle
           Cm
no les platico
                     F
de otra cosa que de ti.

 Bb
Loco

por que me ama
                    Cm 
la mejor de las estrellas
               
porque se niegan a aceptar
           Bb
que la mas bella
         C
haya bajado
             F        E
de tan alto para mí.

Cm 
Loco
            F
porque les digo
                       Bb
que me quieres con el alma
             Bm
y por las tardes
      c#              Cm
cada vez que cae tu falda
              F
voy despojandote
            Bb   
de todo lo demaaaas.

 Cm
Loco 
         F
por esos ojos
                     Bb
que me dicen que me aman,
           Bm
cuando amanecen
       C#            Cm
encimita de mi almohada
           F
tras esas noches
           Bb
de locura que me da-as
cm - F - Bb
      cuando te sueño.


TTTTTTTTTTTT  EEEEEEE  RRRRRRR  eeeeeee    SSSS     AA 
TTTTTTTTTTTT  EEEEEEE  RRR  RRR eeeeeee   SS  SS   AAAA
    TTT       EEE      RRR  RR  eee       SS      AA  AA
    TTT       EEEEEE   RRRRRR   eeeeee    SSSSS   AA  AA
    TTT       EEEEEE   RRRRRR   eeeeee     SSSSS  AAAAAA
    TTT       EEE      RRR  RR  eee           SS  AAAAAA
    TTT       EEEEEEE  RRR  RRR eeeeeee   SS  SS  AA  AA
    TTT       EEEEEEE  RRR  RRR eeeeeee    SSSS   AA  AA

Fuente original: LaCuerda
Colaborador original: Lorenzo [Rodriguez]

Que te parecio? Calificalo con estrellas!!

Rating: 4.5/10 (69 votos)

Este fichero es trabajo propio de su transcriptor y representa su interpretación personal de la canción. El material contenido en esta página es para exclusivo uso privado, por lo que se prohibe su reproducción o retransmisión, así como su uso para fines comerciales.


Deja tus comentarios:

Letras de Alejandro fernandez
Letras de canciones | Musica Independiente