Acordes y tablaturas para guitarra

Acordes y Tablaturas
Usuario: Password:

Buscar:
Acordes y Tablaturas >> Letra H >> Acordes de Heroes del silencio >> Mar adentro (2)
Tablatura de Mar adentro, Heroes del silencio

Mar adentro (2)

Heroes del silencio






REm	FA	LA#maj7	LAm	 DO2	  MIm2   SOL2
e|----5------5------5----------5------8------7------7--|
b|----6------6------6----------5------8------8------8--|
g|----7------5------7----------5------9------9------7--|
D|----7------7------8----------7-----10------9------5--|
A|----5------8------5----------7-----10------7------*--|
E|----5------5------5----------5------8------*------*--|




INTRO: REm/FA/La#maj7/Lam    x2


como INTRO

	I

Y por fin he encontrado el camino

que ha de guiar mis pasos,

y esta noche me espera el amor

en tus labios.

De cada mirada, por dios,

ardia el recuerdo en mi interior,

pero ya he desechado

por siempre la fruta podrida.


INTERM:

    REm  LAm	REm  LAm

e|--10---8-----|-10-13-12----|
b|----10--8----|----------13-|
g|----------10-|-------------|


    DO          MIm         SOL
En la prision del deseo estoy.



	II

y aunque deba cavar en la tierra

la tumba que se que me espera

jamas me vio nadie llorar asi.

que termine un momento precioso

y le suceda la vulgaridad,

y nadar mar adentro

y no poder salir.


INTERM:

    REm  LAm	REm  LAm

e|--10---8-----|-10-13-12----|
b|----10--8----|----------13-|
g|----------10-|-------------|



    DO          MIm         SOL
En la prision del deseo estoy.

junto a ti.


solo:

   REm   FA  LA#maj7      LAm    REm   FA  LA#maj7      LAm

e|-----------1------------8-5--|-----------1------------8-5--|
b|-3---3-1-----3-3---1----5--5-|-3---3-1-----3-3---1----5--5-|
g|---2-------------2------5----|---2-------------2------5----|
D|---------3-------------------|---------3-------------------|

   REm    LAm   REm	   LAm    DO	   MIm	    SOL

e|---1-5--8-5---5-55------------|---3---3------0--5-3-0---3-3--3-3---3-3--3-3-|
b|-3------5--5--6-66-6-6~~~5--5-|-5---5---5---5-----------3-3--3-3---3-3--3-3-|
g|--------5-----7-77--(7~~~5)-5-|------------4------------0-0--0-0---3-0--0-0-|
D|--------------7-77------------|-------------------------0-0--0-0---0-0--0-0-|




-REPETIR  EL INTRO


Y por fin he encontrado el camino

que ha de guiar mis pasos,

y esta noche me espera el amor

en tus labios.

De cada mirada, por dios,

ardia el recuerdo en mi interior,

y nadar mar adentro

y no querer salir.

INTERM:

    REm  LAm	REm  LAm

e|--10---8-----|-10-13-12----|
b|----10--8----|----------13-|
g|----------10-|-------------|



    DO          MIm         SOL
En la prision del deseo estoy.
   DO          MIm         SOL
En la prision del deseo estoy.


REPETIR SOLO

LUEGO EL FINAL:


   REm  			 FA			  LA#maj7			    LAm

e|------8--------8--------8--------8-------8--------8--------8----10^8-8--|
b|------------------------------------------------------------------------|
g|--8^10--10-8^10--10-8^10--10-8^10--10-8^10--10-8^10--10-8^10--10--------|
D|------------------------------------------------------------------------|

   REM	     LAm		REm		LAm
e|-------5-6^5--5-8-5---6^5-5--------5-6^5--5-8-5---6^5-5--|
b|------------6-------6-------------------6-------6--------|
g|-5-5^7-----------------------5-5^7-----------------------|
D|---------------------------------------------------------|

   REm    LAm     REM       LAm
e|-555-55-555-55--5-55----------------|
b|-666-66-555-55--6-66-6-6~~~5--5-----|
g|-777-77-555-55--7-77--(7~~~5)-5-----|
D|-777-77-777-77--7-77----------------|


    DO2         MIm2        SOL2
En la prision del deseo estoy.
          REm
junto a ti.


FIN.

SUGERENCIAS:
E-Mail      [email protected]

Fuente original: LaCuerda
Colaborador original: Fabian Andres Sanchez Ch. [[email protected]]

Que te parecio? Calificalo con estrellas!!

Rating: 6.1/10 (65 votos)

Este fichero es trabajo propio de su transcriptor y representa su interpretación personal de la canción. El material contenido en esta página es para exclusivo uso privado, por lo que se prohibe su reproducción o retransmisión, así como su uso para fines comerciales.


Deja tus comentarios:

Letras de Heroes del silencio
Letras de canciones | Musica Independiente