Enviado por: Anonimo
Agrandar Letra
Reducir Letra
Imprimir






Heroes Del Silencio, La Herida

la herida (versión en vivo)
21/feb/01

intro:
                                         *
-0--0------0h1p0----------------1-1------1-----
-1----1-----------3p1p0---------1---1----1-----
-2------2---------------2-0-----0-----0--0-----
-2---------------------------0--0--------0-----
-0------------------------------2--------2-----
-0------------------------------3--------3-----

                                         *
-----------------------------------------1-----
-----------------------------------------3-----
-----------------------------------------2-----
*-rasguear-según-el-ritmo-de-la-canción--0-----
-el-mismo-acorde.------------------------0-----
-----------------------------------------0-----
-----------------------------------------0-----


 *
-0-----------------------------------------------
-1-----------------------------------------------
-2-----------------------------------------------
-2-----------------------------------------------
-0-----------------------------------------------
-0-----------------------------------------------
Luego siguen los puros acordes, junto con la armónica:
Am, G y Dm.

Chorus:
C ó Am         Em              Nota 1: aquí yo prefiero
 Siempre es la misma función,  usar Am, se oye mejor.
    Am
el mismo espectador.
C ó Am      Em     
 El mismo teatro
           Am   
en el que tantas veces actuó.
C              Em
 Y perder la razón
Am
 en un juego tan real,
C                 Em
 quizás fuera un error,
G                          Am
 cúrame esta herida, por favor.

Interlude:

-5----8---7---5-----3-1p0--------------
---5----5---5---5/1--------------------
---------------------------------------
---------------------------------------
---------------------------------------
--------------------------------------- 

1st. Verse:

Am
 Que hay en 2 amigos 
 G
cuando después de todo,
   Dm
parecen perdidos
    Am                    Nota 2:Aquí también puede ser
y prefieren a otros,      F en lugar de Dm, en el 1st.
                          verse.
que dan, lerdas manos,      
   G
ignorando lo dado,
     Dm
si antaño se estrecharon,
         Am
ahora están dañados,

¿Qué les hizo alejarse
       G
de su orilla intranquila,
       Dm
tan siquiera un instante,
        Am        
piensan en esos días?



Chorus

Se repite el intro, sólo hasta donde entra la armónica 
en éste.


2nd. verse:Los mismos acordes y la misma nota que el 
1st.verse.

Siempre he preferido
un beso prolongado 
aunque sepa que miente,
aunque sepa que es falso, 
qué demonios ocurre 
cuando miradas no se encuentran
la pelea de gallos,
se admiten apuestas,
que buscó abrigo,
en algún otro lugar, 
es posible que el frío
venga con la edad


Chorus: No recuerdo cuántas veces más se repite el coro, y así acaba la canción.



Bueno, eso es todo, espero que la disfruten como yo, 
esta canción es muy especial para mí, cualquier duda 
o sugerencia, ahí está mi correo, y me gustaría
dedicarle esta canción y esta tablatura a Edith California.

Fuente original: LaCuerda
Colaborador original: Francisco Rodríguez Martínez [[email protected]]
Aviso: Este fichero es trabajo propio de su transcriptor y representa su interpretación personal de la canción. El material contenido en esta página es para exclusivo uso privado, por lo que se prohibe su reproducción o retransmisión, así como su uso para fines comerciales.

Califica esta canción


Comentarios en Facebook