Acordes y tablaturas para guitarra

Acordes y Tablaturas
Usuario: Password:

Buscar:
Acordes y Tablaturas >> Letra C >> Acordes de Callejeros >> Si me canse (2)
Tablatura de Si me canse, Callejeros

Si me canse (2)

Callejeros






Intro:
e|-----13-----11-----14-13-11------13----11----8---6---|
B|-----------------------------------------------------|
G|-/13----/11----/14-----------/13----/11----/8--/6----|
D|-----------------------------------------------------|
A|-----------------------------------------------------|
E|-----------------------------------------------------|

------------------------------------------------------------------------------------------
Verso:

e|---8---6-|---4----7----11---9---7----7----11---|
B|---------|-------------------------------------|
G|-/8--/6--|-/4---/7--/11---/9--/7---/7--/11-----|
D|---------|-------------------------------------|
A|---------|-------------------------------------|
E|---------|-------------------------------------|
Si me cansé de cansarme no fue por otario, ni fue por corsario,
ni fue por amargo, ni bueno, ni fiel.

D|----13---11------13----11-----13---11-------8---6----8------11--9--7-----9--|
A|----------------------------------------------------------------------------|
E|-/13--/11-----/13---/11-----/13---/11-----/8--/6---/8----/11--/9--/7----/9--|
D|----------------------------------------------------------------------------|
A|----------------------------------------------------------------------------|
E|----------------------------------------------------------------------------|
Fue por ver: Que todos la hacen, que todos la toman,
la venden, la roban y después se morfan sin asco...la mejor miel.

------------------------------------------------------------------------------------------

e|---------------------------|
B|---------------------------|
G|---------------------------|
D|-(3)-(3)---4-4-5-5-6-6-7-7-|
A|-(3)-(3)---4-4-5-5-6-6-7-7-|
E|-(1)-(1)---2-2-3-3-4-4-5-5-|

------------------------------------------------------------------------------------------
Verso:
e|-------------------------------------------------|------------------------------------|---------------------------|
B|--------------------------------10-10-----10-----|------------------------------------|---------------------------|
G|--------------------------------10-10-----10-----|---------------------------10-10-10-|---------------------------|
D|-------------------5-7-5-7-/10-------------------|----------------8-10-8-10/-10-10-10-|-8-8-8-8-8-8---/12-10-(8)--|
A|-8-10-8-10-8-10----3-3-3-3-/8----------8-8----8--|-8-10-8-10-8-10-6-6--6--6/--8--8--8-|-6-6-6-6-6-6---/10--8-(6)--|
E|-6-6--6-6--6-6-----------------------------------|-6-6--6--6-6--6---------------------|---------------------------|

Bb
Si me canse de esperar,
                C                      F
fue porque el tiempo no curó ni una herida.
Bb
Si me cansé de olvidar,
               Eb                          F
fue porque el olvido es la pastilla suicida.

Eb              G  F  Eb
Si me cansé de perdonar,
           C                                  F
fue porque cuando duele nunca, nunca, nunca se olvida.

e|---------------------------|
B|---------------------------|
G|-(5)-----------------------|
D|-(5)-10-12-10-12-10-12-----|
A|-(3)--8--8--8--8--8--8-----|
E|---------------------------|

e|-------------------------------------6-6-6-|
B|------------------------6-----------6-6-6--|
G|--/(5v)-3-/5(v)-7-5-7-5--------------------|
D|-------------------------------------------|
A|-------------------------------------------|
E|-------------------------------------------|

------------------------------------------------------------------------------------------
Verso:
Bb
Si me cansé de mentir,
               C                           F
fue porque la verdad lastima solo al principio.
Bb
Si me cansé de dormir,
                  Eb                    F
fue porque al sueño no lo sueño dormido.

------------------------------------------------------------------------------------------
Eb               F   Eb
Si me cansé de asistir,
           C                                                F
fue porque asistiendo o no asistiendo siempre empezaron sin mí.


e|------------------------------------6-6-6-|
B|-----------------------------------6-6-6--|
G|--/(5v)-3-/5(v)-7-5--/(5v)--5-5/10--------|
D|------------------------------------------|
A|------------------------------------------|
E|------------------------------------------|

------------------------------------------------------------------------------------------

     Bb                   F      C     Eb   Bb                 F   Eb   D    C
e|-----------------------------|-------------------------------------------------|
B|-----------------------------|-------------------------------------------------|
G|-----------------(10)-10-10--|-(5)---(8)---------------------------------------|
D|-----------------(10)-10-10--|-(5)-5-(8)--------------------/10-10-8-8-7-7-5-5-|
A|-8-10-8-10-8-10---(8)--8--8--|-(3)-3-(6)--8-10--8-10--8-10--/-8--8-6-6-5-5-3-3-|
E|-6--6-6--6-6--6--------------|------------6--6--6--6--6--6---------------------|

                                     e|---------------------|
                                     B|---------------------|
                                     G|--/5-3-5b-3-3-5-(3v)-|
                                     D|-----------5---------|
                                     A|---------------------|
                                     E|---------------------|
         Bb                          F
Si me cansé de obedecer, de ser correcto.
          C         Eb                  Bb     F  Eb D C
Me corresponde ser obediente a mi parecer.

       Bb                 C      Bb Gb F Bb Gb F Bb
e|-----------------------------|-----------------------|
B|-----------------------------|-----------------------|
G|-----------------(8)-8-(5)---|-3-------3-----(3)-----|
D|-----------------(8)-8-(5)---|-3--3-3--3-4-3-(3)-----|
A|-8-10-8-10-8-10--(6)-6-(3)---|-1--3-3--1-4-3-(1)-----|
E|-6--6-6--6-6--6--------------|----2-1----2-1---------|

 e|--------------|
 B|--------------|
 G|--5b-3---(3)--|
 D|-------5------|
 A|--------------|
 E|--------------|
             Bb                                 Eb    C
Y hoy me doy cuenta que padeciendo también me canso
 Bb                  Gb          F          Gb  F  Bb
(siempre que no pertenezca voy a pertenecer).

------------------------------------------------------------------------------------------
Solo De Guitarra

e|--6b-6-6-6-6-6-6-6-6-6-6-6-------------------------------6-8-6-8-6-6-8-6-8-------------------------------|
B|--6b-6-6-6-6-6-6-6-6-6-6-6-6-----------------------------6-8-6-8-6-6-8-6-8----------------9-6------------|
G|-----------------------------8-6-8b-6--6-8--8b8b8b8b-----------------------8b-6--6-8-8b-------9-8-6------|
D|--------------------------------------8-----------------------------------------8--------------------8-6-|
A|---------------------------------------------------------------------------------------------------------|
E|---------------------------------------------------------------------------------------------------------|

e|-----------------------------------------------------6-6-6-/6-|
B|-------------------------------------------------6--6-6-6-6/--|
G|-1/(3)-1-3-3/5-3-1-3--1-3-3/(5)--3-3/(5)---7-5-7--------------|
D|--------------------------------------------------------------|
A|--------------------------------------------------------------|


------------------------------------------------------------------------------------------
Verso
Bb
Si me cansé de ceder,
               C                        F
fue porque cediendo te vas muriendo en vida.
Bb
Si me cansé de llorar,
                    Eb                    F
fue porque en las lágrimas no encontré salida.

------------------------------------------------------------------------------------------
Eb                    F    Eb
Si me cansé de siempre correr,
           C                                       F
fue porque muchas cosas las perdí corriendo noche y día.

e|------------------------------------6-6-6|
B|-----------------------------------6-6-6-|
G|-/3---3-5b-3---3------3/5--7-5-7-5-------|
D|----5--------5---------------------------|
A|-----------------------------------------|
E|-----------------------------------------|

------------------------------------------------------------------------------------------

Bb
Si me cansé de mirar,
              C                      F
fue porque mirando ví una vez a la muerte.
Bb
Si me cansé de perder,
                Eb                       F
fue porque una vez me desangre por perderte.
------------------------------------------------------------------------------------------
Eb                 F    Eb             C
Si me cansé del culo cerrar fue por el hambre,
                                     F
el miedo a la guerra y a la fría soledad. soledad.

e|------------------------------------6-6-6|
B|-----------------------------------6-6-6-|
G|-/3---3-5b-3---3------3/5--7-5-7-5-------|
D|----5--------5---------------------------|
A|-----------------------------------------|
E|-----------------------------------------|

------------------------------------------------------------------------------------------

         Bb                          F
Si me cansé de obedecer, de ser correcto.
          C         Eb                  Bb     F  Eb D
Me corresponde ser obediente a mi parecer.
             Bb                                 Eb    C
Y hoy me doy cuenta que padeciendo también me canso
 Bb                  Gb          F          Gb  F  Bb Gb F Bb
(siempre que no pertenezca voy a pertenecer).

------------------------------------------------------------------------------------------
FINAL:
e|-1-1---------------------------------------------------------------------------------|
B|-1-1---------------------------------------------------------------------------------|
G|-2-2---------------------------------------------------------------------------------|
D|-3-3---------------------------------------------------------------------------------|
A|-3-3----4-4-5-5-6-6-7-7-8-8-10-10-12-12-14-14-16-16-14-14-12-12-10-10-(10)-----------|
E|-1-1----2-2-3-3-4-4-5-5-6-6--8--8-10-10-12-12-14-14-12-12-10-10--8--8--(6)-----------|

todos con el ghetto del rey

Fuente original: LaCuerda
Colaborador original: Pablito Gabriel [[email protected]]

Que te parecio? Calificalo con estrellas!!

Rating: 2.7/10 (30 votos)

Este fichero es trabajo propio de su transcriptor y representa su interpretación personal de la canción. El material contenido en esta página es para exclusivo uso privado, por lo que se prohibe su reproducción o retransmisión, así como su uso para fines comerciales.


Deja tus comentarios:

Letras de Callejeros
Letras de canciones | Musica Independiente