Acordes y tablaturas para guitarra

Acordes y Tablaturas
Usuario: Password:

Buscar:
Acordes y Tablaturas >> Letra R >> Acordes de Red Hot Chili Peppers >> Californication (2)
Tablatura de Californication, Red Hot Chili Peppers

Californication (2)

Red Hot Chili Peppers






Hola a todos, hoy les traigo algo de los Red Hot Chili Peppers una muy buena canción que personalmente me gusta mucho. esta canción veremos en el INTRO una unión de dos instrumentos, una parte que se toca en la versión original con guitarra y bajo, pero aquí logre sacarla una sola.

INTRO:


e---------------------------------------------------------------------|
B------0-1--------------------------------0-1-------------------------|
G---------------------------0-2------------------------------0-2------|   (x2)
D----2---2-2-0h2p0------------0-0-------2---2-2-0h2p0----------3-3-0--|
A--0----------------3-----3-------3---0---------------3----3----------|
E-----------------------1--------------------------------1------------|

VERSOS:

Vamos a tocar el INTRO en las estrofas hasta que inicie el CORO, podemos acompañar con un ritmo de una segunda guitarra mientras tanto:

Am                                 F
Psychic spies from China try to  steal your minds elation
Am                                  F
little girls from sweeden dream of silver screen quotations

CORO:

Esto no es un coro en todo el sentido de la palabra, pero cada vez que se vea una linea que tenga "californication" tocamos esto, primero pondré letra con acordes para segunda guitarra y luego el punteo de la primera:

C                      G                 F         Dm       
and if you want these kind of dreams its californication.
e------0--------------------------1--|
B---------------0---------------3----|
G----0---0---------------2-----------|
D-------------0---0-----------0------|
A--3-------------------3---3---------|
E-----------3--------1---------------|

VERSOS:

Luego volvemos a tocar el INTRO para los versos siguientes:

      Am
Its the edge of the world
             F
And all of western civization
     Am
The sun may rise in the east
             F
At least it settles in the final location

CORO:

Y de nuevo este "coro" con los mismos acordes y punteo que el anterior:

   C                 G              F         Dm      
It`s understood that Hollywood sell Californication
e------0--------------------------1--|
B---------------0---------------3----|
G----0---0---------------2-----------|
D-------------0---0-----------0------|
A--3-------------------3---3---------|
E-----------3--------1---------------|

VERSOS:

En estos versos que siguen, luego del coro hay un pequeño pasaje que se toca con las notas Am y F7M: 

   Am  F7M
e--0---0---|       Con estas dos notas hacen esa pequeña parte y el ritmo pueden 
B--1---1---|       sacarlo por su cuenta y a su gusto como les quede mas facil o
G--2---2---|       pueden tocar este: ab, ar, ab, ab, ar, ab, ab, ab y ar.
D--2---3---|       tocan ese ritmo una vez por cada acorde 2 veces, si no entienden
A----------|       guiense por la cancion, luego siguen estos versos:
E----------|              

Am                             F7M
Pay your surgeon very well to break the spell of ageing
   Am                              F7M
Celerity skin is this your chin or is that the war your waging?

Am                F7M
   First born unicorn
Am                 F7M
   Hard core soft porn

CORO:

Otra vez volvemos a tocar lo mismo, solo que esta vez sin punteo, vamos a tocar cada acorde 2 veces,excepto en el Dm final de la primera linea que les señalare con esto *, esa vez tocamos 4 veces, y en las ultimas dos notas de las segundas lineas que también les indicare se tocan una vez:

C             G    Dm  Am    C             G    Dm*
Dream of californication     dream of californication
C             G    Dm  Am    C             G*    Dm*     
Dream of californication     dream of californication

VERSOS:

De aqui en adelante es como en el principio, tocamos mismos acordes y mismos punteos para los versos y coros, incluyendo la parte donde se vuelve a uasra el Am y el F7M:

Am
Marry me girl be my fairy to the world
   F
Be my very own constellation
   Am                                       F
A teenage bride with a baby inside getting high of information

CORO:

     C                    G             F       Dm       (Am  F)
And buy me a star on the boulavard its californication

VERSOS:

 Am                                     F
Space may be the final frontier but its made

in a hollywood basement
Am
Cobain can you hear the spreres
         F
singing songs off station to station

CORO:

C                 G           F         Dm      (Am F7M)
And alderons not far away its californication

VERSOS:

Am
Born and raised by who praise
    F7M
Control of population
Am                           F7M
Everybodys been there and i dont

Mean on vaction

Am                F7M
   First born unicorn
Am                 F7M
   Hard core soft porn

CORO:

C             G    Dm  Am    C             G    Dm
Dream of californication     dream of californication
C             G    Dm  Am    C             G    Dm
Dream of californication     dream of californication

SOLO: Guitarra 2 (No obligatorio, la canción puede interpretarse con una sola guitarra)

e--2-------2-2-2----------|          
B--2-------2-2-2----------|
G--2-1-----2-2-2----------|   (2x)
D--4-4-4-2-0-0-0----------|
A-------------------------|
E-------------------------|

e-----2---2---0----0-------|
B-----3---3---2----0-------|
G-----4--2----2----1-------|    
D----4--0----2-----2-------|
A--2--------0-----2--------|
E----------------0---------|

e--2-------2-2-2----------|          
B--2-------2-2-2----------|
G--2-1-----2-2-2----------|   (2x)
D--4-4-4-2-0-0-0----------|
A-------------------------|
E-------------------------|

e-----2---2---0----0-------|
B-----3---3---2----0-------|
G-----4--2----2----1-------|   (x3) 
D----4--0----2-----2-------|
A--2--------0-----2--------|
E----------------0---------|

SOLO: 

e-----9------------9-------------------------------------------|
B--10----7b9r7--10----7b9r7--7-7-7-7p5----------5-7b9r7-7-5----|
G--------------------------------------6-6--4-6-------------6--|
D--------------------------------------------------------------|
A--------------------------------------------------------------|
E--------------------------------------------------------------|

e-----9-12-14~-----9-12-14b16r14--17-16-14-12-14-12----12-9-9------9------9-----|
B--10-----------10----------------------------------14------12b14--12b14--12b14-|
G-------------------------------------------------------------------------------|
D-------------------------------------------------------------------------------|
A-------------------------------------------------------------------------------|
E-------------------------------------------------------------------------------|

e--12----14b16r14-12----12----------12-10-9------|
B-----14-------------14----14-12-10---------10~--|
G------------------------------------------------|
D------------------------------------------------|
A------------------------------------------------|
E------------------------------------------------|

Lo demás es cuestión de repetir lo ya hecho.

   Am                                         F
Destruction leads to a very rough road but it also

breeds creation
  Am
And earthquakes are to a girls guitar
        F
therye just another good vibration
   C                      G                   F       Dm       (Am F7M)
and tidal waves couldent save the world from californication
Am                             F7M
Pay your surgeon very well to break the spell of ageing
Am
sicker than the rest

there is no test
        F
but is this what your craving

Am                F7M
   First born unicorn
Am                 F7M
   Hard core soft porn
C             G    Dm  Am    C             G    Dm
Dream of californication     dream of californication
C             G    Dm  Am    C             G    Dm
Dream of californication     dream of californication

                          FIN

Pues eso ha sido todo, ojala les haya gustado, si tienen alguna duda solo comenten, por favor no insulten y nos vemos en la próxima.

Canción anterior: Queen / Love Of My Life

Próxima canción: The Beatles / Let It Be

Nos vemos....

Que te parecio? Calificalo con estrellas!!

Rating: 7.6/10 (153 votos)

Este fichero es trabajo propio de su transcriptor y representa su interpretación personal de la canción. El material contenido en esta página es para exclusivo uso privado, por lo que se prohibe su reproducción o retransmisión, así como su uso para fines comerciales.


Deja tus comentarios:

Letras de Red Hot Chili Peppers
Letras de canciones | Musica Independiente