Enviado por:
tatoman

U2, With Or Without You

esta es una version de la cancion with or without you en acustic. dos guitarras. disfrutenla

WITH OR WITHOUT YOU ? U2

INTRO 

Guitarra 1
   G                         D                   EM                        C
E|------------------------0--------------2-----------3--------|
B|-----------3---------3--------------3-----------3-----------|
G|--------0---------2--------------0-----------0--------------|
D|------0--------0------------2-------------------------------|
A|------------------------------------------3-----------------|
E|--3---------------------------------------------------------|

Guitarra 2
E|--------------------------------------7----8-----------------|
B|-----------3------------5-----------7-------8----------------|
G|--0-----0------0-----0------------7----------9-------2/4-2-0-|
D|-----4------------4------------------------------------------|
A|---------------5-------------7-------------------------------|
E|--3----------------------------------------------------------|


ESTROFA 1
(Una sola guitarra 1)

                      
See the stone set in your eyes   See the thorn twist in your side
E|------------------------0--------------2-----------3--------|
B|-----------3---------3--------------3-----------3-----------|
G|--------0---------2--------------0-----------0--------------|
D|------0--------0------------2-------------------------------|
A|------------------------------------------3-----------------|
E|--3---------------------------------------------------------|


     I wait                     for you
E|----------------------------------------2-----------3--------|
B|-----------3-------------5-----------3-----------3------(12)-|
G|--0-----0-------0-----0-----------0-----------0--------(12)--|
D|-----4-------------4-----------2-----------------------------|
A|----------------5--------------------------3-----------------|
E|--3----------------------------------------------------------|


Sligt of hand and twist of fate On a bed of nals she maks me wait
E|------------------------0--------------2-----------3--------|
B|-----------3---------3--------------3-----------3-----------|
G|--------0---------2--------------0-----------0--------------|
D|------0--------0------------2-------------------------------|
A|------------------------------------------3-----------------|
E|--3---------------------------------------------------------|


   And I wait                    without you
E|----------------------------------------2-----------3--------|
B|-----------3-------------5-----------3-----------3------(12)-|
G|--0-----0-------0-----0-----------0-----------0--------(12)--|
D|-----4-------------4-----------2-----------------------------|
A|----------------5--------------------------3-----------------|
E|--3----------------------------------------------------------|



CORO 1

Guitarra 1

With or without you             With or without you
   G             D           EM                C
E|------------------------0--------------2-----------3--------|
B|-----------3---------3--------------3-----------3-----------|
G|--------0---------2--------------0-----------0--------------|
D|------0--------0------------2-------------------------------|
A|------------------------------------------3-----------------|
E|--3---------------------------------------------------------|

Guitarra 2
E|--------------------------------------7---------------------|
B|-----------3------------5-----------7-------------3---------|
G|--0-----0------0-----0------------7------------5----2/4-2-0-|
D|-----4------------4--------------------------5--------------|
A|---------------5-------------7------------3-----------------|
E|--3---------------------------------------------------------|



ESTROFA 2
(Con las 2 mismas guitarras del coro)


G                      Dsus2                      Em9             
Through the storm we reach the shore
                       G/C
you gave it all but I want more
 G                Dsus2       Em9        G/C
And I'm waiting for you


CORO 2
(Con las 2 mismas guitarras del coro 1)

         G     Dsus2               
With or without you
              Em9      G/C
With or without you
      G       Dsus2
I can't live
               Em9      G/C
With or without you




ESTRIBILLO
(La guitarra 1 rasguea el mismo riff, la guitarra 2 arpegia) 

      G                  Dsus2                                 
And you give yourself away
            Em9      G/C
And you give yourself away
            G                Dsus2                                 
And you give  And you give
              Em9      G/C
And you give yourself away


ESTROFA 3
(La guitarra 1 hace un rasgueo 2 ritmos, la guitarra 2 realiza el mismo arpejeo)

G                Dsus2        Em9            G/C  
My hands are tied,          my body bruised She got me with
G                Dsus2        Em9           G/C  
Nothing to win and          Nothing left to lose


ESTRIBILLO

             G                  Dsus2                                 
And you give yourself away
               Em9      G/C
And you give yourself away
             G                Dsus2                                 
And you give   And you give
               Em9      G/C
And you give yourself away


CORO 2

          G     Dsus2               
With or without you
                    Em9      G/C
With or without you
        G       Dsus2
I can't live
                   Em9      G/C
With or without you

(2 circulos armonicos con los arreglos qe tatto les va a decir en ensallos)
Ohhhhhhhh  ohhhhhhhh


CORO 2

          G     Dsus2               
With or without you
                    Em9      G/C
With or without you
        G       Dsus2
I can't live
                   Em9      G/C
With or without you


(un circulo armonico igual)



        G       Dsus2
I can't live
                   Em9      G/C
With or without you

INTRO 

Guitarra 1
   G                         D                   EM                        C
E|------------------------0--------------2-----------3--------|
B|-----------3---------3--------------3-----------3-----------|
G|--------0---------2--------------0-----------0--------------|
D|------0--------0------------2-------------------------------|
A|------------------------------------------3-----------------|
E|--3---------------------------------------------------------|

Guitarra 2
E|--------------------------------------7----8-----------------|
B|-----------3------------5-----------7-------8----------------|
G|--0-----0------0-----0------------7----------9-------2/4-2-0-|
D|-----4------------4------------------------------------------|
A|---------------5-------------7-------------------------------|
E|--3----------------------------------------------------------|




        G       Dsus2
I can't live
                   Em9      G/C
With or without you


(TERMINA EN UN SOL)
Aviso: Este fichero es trabajo propio de su transcriptor y representa su interpretación personal de la canción. El material contenido en esta página es para exclusivo uso privado, por lo que se prohibe su reproducción o retransmisión, así como su uso para fines comerciales.

Califica esta canción


Comentarios en Facebook