Acordes y tablaturas para guitarra

Acordes y Tablaturas
Usuario: Password:

Buscar:
Acordes y Tablaturas >> Letra J >> Acordes de John Petrucci >> Damage Control (2)
Tablatura de Damage Control, John Petrucci

Damage Control (2)

John Petrucci

Transcriptor:
xxXxJuAnChOxXx
Letras de Canciones
Acordes para Guitarra





espero que les sirva este temon de john



e--------------------------------------------
B--------------------------------------------
G---------------------------------4--2-------
D--4-4--2--4--2--4-4--2--4--2--4--4--2-------
A--4-4--2--4--2--4-4--2--4--2--4--2--0-------
E--2-2--0--2--0--2-2--0--2--0--2-------------


e--------------------------------------------
B--------------------------------------------
G------------------------------4/5-----------
D--4-4--2--4--2--4-4--2--4--2--4/5-----------
A--4-4--2--4--2--4-4--2--4--2--2/3-----------
E--2-2--0--2--0--2-2--0--2--0----------------


e--------------------------------------------
B--------------------------------------------
G---------------------------------4--2-------
D--4-4--2--4--2--4-4--2--4--2--4--4--2-------
A--4-4--2--4--2--4-4--2--4--2--4--2--0-------
E--2-2--0--2--0--2-2--0--2--0--2-------------

e--------------------------------------------
B--------------------------------------------
G--------------------------------------------
D--4-4--2--4--2--4-4--2--4--2--5--4--3-------
A--4-4--2--4--2--4-4--2--4--2--5--4--3-------
E--2-2--0--2--0--2-2--0--2--0--3--2--1-------


e----------------------------0----------------
B--------------------------0------------------
G--------3b(4)(3)-----------------------------
D------4----------4------4--------------------
A----4---------------4/5----------------------
E--2------------------------------------------



e---------------------------9/12/9------------
B-------------------------7-------------------
G--------3b(4)(3)-----4/6---------------------
D------4----------4/5-------------------------
A----4----------------------------------------
E--2------------------------------------------


e--------------------------------------------
B--------2---------7/5*----------------------
G----3---------4/6---------------------------
D------4---4/5-------------------------------
A--------------------------------------------
E--2-----------------------------------------

e--------------0-----------------7/9-/12-/14-/15-
B----------------0-----------5/7-----------------
G------------------3-----4/6---------------------
D----4p2---2---------4/5-------------------------
A--------4---4-----------------------------------
E--2---------------------------------------------



e----------------------------------------------
B--------------------------------------17------
G-----------15b(16)(15)-------------16---------
D--------16-------------16-------16------------
A-----16-------------------16/17---------------
E--14------------------------------------------



e--------------------------------------21/24/21
B-----------------------------------19---------
G-----------15b(16)(15)-------16/18------------
D--------16-------------16/17------------------
A-----16---------------------------------------
E--14------------------------------------------



e--------------------------------------------
B-----------14-------------19/17-------------
G-----15-------------16/18-------------------
D--------16----16/17-------------------------
A--------------------------------------------
E--14----------------------------------------



e--------------------12----------------------21/24
B-----------------------12----------------19------
G--------------------------14-------16/18---------
D-----16p14----14-------------16/17---------------
A-----------16----16------------------------------
E--14---------------------------------------------


e--14-15-------15-14-------14-12-------12----
B--------12-15-------12-15-------------------
G--------------------------------14-16-------
D--------------------------------------------
A--------------------------------------------
E--------------------------------------------



e---------------------------------------15-14
B-14h15p14------------------------15---------
G----------16-14-16*-----------16----16------
D---------------------14-16-17---------------
A--------------------------------------------
E--------------------------------------------



e-12-14-------15-14-------14-17-------17-----
B-------12-15-------12-15-------14-17--------
G--------------------------------------------
D--------------------------------------------
A--------------------------------------------
E--------------------------------------------




e-19-17-15--------------------------------15*
B----------19-17-15--------------------17----
G-------------------18-16-14-16*---/14-------
D--------------------------------------------
A--------------------------------------------
E--------------------------------------------

e----19----20*-------------------------------
B-17----17-----------------------------------
G--------------------------------------------
D--------------------------------------------
A--------------------------------------------
E--------------------------------------------

Que te parecio? Calificalo con estrellas!!

Rating: 4.4/10 (16 votos)

Este fichero es trabajo propio de su transcriptor y representa su interpretación personal de la canción. El material contenido en esta página es para exclusivo uso privado, por lo que se prohibe su reproducción o retransmisión, así como su uso para fines comerciales.


Deja tus comentarios:
Letras de canciones | Musica Independiente