Enviado por: franco_maiden
Agrandar Letra
Reducir Letra
Imprimir



Iron Maiden, The Trooper

INTRO 
1.----------------------------------- 
2.-----------------------------5--5-7 
3.--------9---------7--------5---5--- 
4.-9-9-9-7---7-7-7-5--5-5-5-4-------- 
 
1.------------------------------------------ 
2.-7--7-7--7-7-7--7-7-7--7--7-7-7--7-7-5---5 
3.---------------------------------------5-- 
4.------------------------------------------ 
 
1.------------------------------- 
2.-3--33-3--33--3-3-3-3--33-5---5 
3.----------------------------5-- 
4.------------------------------- 
 
1.------------------------------------------------- 
2.-7--7-7-7--7-7--7-7-7--5--5-5--5-5-5-5--7-7-7-7-7 
3.------------------------------------------------- 
4.-------------------------------------------------
Aviso: Este fichero es trabajo propio de su transcriptor y representa su interpretación personal de la canción. El material contenido en esta página es para exclusivo uso privado, por lo que se prohibe su reproducción o retransmisión, así como su uso para fines comerciales.
comentario del colaborador: aca les dejo la tablatura de the trooper de iron maiden

Califica esta canción


Comentarios en Facebook