Enviado por: Anonimo
Agrandar Letra
Reducir Letra
Imprimir


Otras Versiones de Veni raquel:

Los autenticos decadentes, Veni raquel

Incluyo esta tablatura debido a que la anterior presentaba algunos errores. 

E----------------------------------------------------------------------------------------
A----------------------------------------------------------------------------------------
D----------------------------------------------------------------------------------------
G--2-2-2-2--3-2---------------2--3-2---------0-0-------0-2---------2-2-3-2---------------
B---------------3-2-0---0-2-3--------3-3-2-------3-2-3-------0-2-3---------3-2-0---------
e----------------------------------------------------------------------------------------



E----------------------------------------------------------------------------------------
A----------------------------------------------------------------------------------------
D----------------------------------------------------------------------------------------
G--2-2-2--3-2---------------5--5-3-2-3-0----3-0--3-0---2-----2-----2---3-2-0-------------
B---------------3-0---0-2-3--------------------0-----0---3-0---3-0-----------3-2-0-------
e----------------------------------------------------------------------------------------

Fuente original: LaCuerda
Colaborador original: Fermy Giupponi [german_lnm]
Aviso: Este fichero es trabajo propio de su transcriptor y representa su interpretación personal de la canción. El material contenido en esta página es para exclusivo uso privado, por lo que se prohibe su reproducción o retransmisión, así como su uso para fines comerciales.

Califica esta canción


Comentarios en Facebook