Acordes y tablaturas para guitarra

Acordes y Tablaturas
Usuario: Password:

Buscar:
Acordes y Tablaturas >> Letra E >> Acordes de Eric Clapton >> layla (2)
Tablatura de layla, Eric Clapton

Layla (2)

Eric Clapton






Eric Clapton - Layla (Unplugged) 
================================ 
 
Riff1 (Intro) 
e----------|------------------------|-------------------------|--1-------------------|------------------------| 
B----------|---------------3--3-----|--5--5--5----------------|--3----------3--3-----|--5---------------------| 
G-------2--|---------------3--3-----|--5--5--5--2----------2--|--2----------3--3-----|--5--------2------------| 
D-------0--|----0-----3----3--3-----|--5--5--5--0----------0--|--------3----3--3-----|--5-----5--0----------0-| 
A-0--3-----|-------3--1----1--1--3--|--3--3--3-------0--3-----|-----3--1----1--1--x--|--3--0--3-------0--3----| 
E----------|------------------------|-------------------------|----------------------|------------------------| 
        D5            Bb5  Bb          C        D5               Dm    Bb5  Bb          C     C5 D5 
 
Solo1 (Intro) 
|-1----1----------------|----------------------------|----------------------------------| 
|-3----3----------------|----------------------5--6--|--5h6h5---5-6--5---------5--6/-8--| 
|-2----2----------------|-------------------7--------|--------7---------7~--------------| 
|-0----0---x?-3?-3----3/|--5--5--5--7----7-----------|----------------------------------| 
|-------------1?-1----1/|--3--3--3--5----------------|----------------------------------| 
|-----------------------|----------------------------|----------------------------------| 
  Dm          Bb           C5       D5                 Dm        Bb 
 
-----------------------8------------|--10-12-10h12h10-----10------------------------------| 
----6--8/-10----8--10-------10--13--|-----------------13------13--10------10--------------| 
------------------------------------|---------------------------------12------12--12h-10--| 
------------------------------------|-----------------------------------------------------| 
------------------------------------|-----------------------------------------------------| 
------------------------------------|-----------------------------------------------------| 
  C5          D5                        Dm                 Bb 
-------------------------------|--------------------------------|-----------------------| 
----------------------5--6--5--|--------------------------------|-----------------------| 
--9--10--9---------7-----------|--7-----7-----------------------|-----------------------| 
----------------7--------------|-----7-----7/-5----3-----3/5-3--|--------0--------------| 
-------------------------------|----------------------5---------|--5--3-------0----3----| 
-------------------------------|--------------------------------|-----------------------| 
  C5        D5                   Dm          Bb                       C       a    c 
 
{Verse1} 
C#m7                              G#7 
 What_ will you do__ when you get lonely__? 
C#m7          C*      D       E     E7 
 With no_one_ waiting by your side__ 
F#m          B              E                  A 
 You've been running_   and hiding much too long__, 
F#m            B                 E           A  (hold) 
 You know it's just your foolish pride__,    Lay___la_ 
 
{Chorus} (Riff1) 
Dm       Bb          C                Dm 
                You_ got_ me_ on_ my_ knees__ Lay__la_ 
Dm       Bb          C                   Dm 
                I'm_ beg_ging_ dar_lin'_ please__, Lay__la 
Dm       Bb          C                   Dm 
                     Dar_lin'_ won't you ease_ my_ wor_ried_ mind__ 
Dm   Bb   C    a  c 
 
{Verse2} 
C#m7                       G#7 
 Tried_ to give_ you_ consola_tion, 
C#m7          C*          D        E     E7 
  Your__ old_ man__ won't let_ you down__ 
F#m       B         E                  A 
 Like_ a_ fool__, I fell_ in love with you__, 
F#m                B                    E            A  (hold) 
 You_ turned_ the_ whole_ world_ upside down__       Lay___la 
 
 
 
 
 
 
 
{Chorus} (Riff1) 
Dm       Bb          C                Dm 
                You_ got_ me_ on_ my_ knees__ Lay__la_ 
Dm       Bb          C                   Dm 
                I'm_ beg_ging_ dar_lin'_ please__, Lay__la 
Dm       Bb          C                   Dm 
                     Dar_lin'_ won't you ease_ my_ wor_ried_ mind__ 
Dm   Bb   C    a  c 
 
{Verse3} 
C#m7                               G#7 
 Let's make the best_ of the sit_u_a_tion__ 
C#m7      C*       D     E     E7 
 Before I fin'lly_ go_ insane__ 
F#m             B              E             A 
 Please_ don't_ say__    we'll never_ find a way__ 
F#m           B               E            A  (hold) 
 And tell_ me all my loves in vain__       Lay___la 
 
{Chorus2} (Riff1) 
Dm       Bb          C                Dm 
                     Got_ me_ on_ my_ knees__ Lay__la_ 
Dm       Bb          C                   Dm 
                     Beg_ging_ dar_lin'_ please__, Layla 
Dm       Bb          C                   Dm 
                     Dar_lin'_ won't you ease_ my_ wor_ried_ mind__ 
Dm       Bb          C                Dm 
                                              Lay__la_ 
Dm       Bb          C                Dm 
                     Got_ me_ on_ my_ knees__ Lay__la_ 
Dm       Bb          C                   Dm 
                     Beg_ging_ dar_lin'_ PLEASE__, LAY__LA 
Dm       Bb          C                   Dm 
                     Dar_lin'_ won't you ease_ my_ wor_ried_ mind__ 
Dm       Bb          C                   Dm 
 
{Solo} 
Dm   Bb   C   Dm   (7x) 
 
Solo2 
  C        Dm                     C  Bb                  C              Dm 
----------------5~-5~----|--5~-5~-5~----5~------------|------------------------------7/| 
--5--5--5--3----6~-6~----|--6~-6~-6~----6~------------|------------------------------9/| 
--5--5--5--2----------7--|-----------7-------7--5-----|--------------------------------| 
--5--5--5--0-------------|-------------------------7--|--6--5/-3--5--3-------3---------| 
--3--3--3----------------|----------------------------|-----------------5~------5--x---| 
-------------------------|----------------------------|--------------------------------| 
 
                         C  Bb                    C                 Dm 
--8---8---8------8---8------8---8------8---8---|-----8---8------8---8-------8--10----------| 
--10--10--10--9/-10--10--9/-10--10--9/-10--10--|--9/-10--10--9/-10--10--10-----------------| 
-----------------------------------------------|-----------------------------------12b-12--| 
-----------------------------------------------|-------------------------------------------| 
-----------------------------------------------|-------------------------------------------| 
-----------------------------------------------|-------------------------------------------| 
 
              C       Bb                                C               Dm 
--------------------------10-12-10h12h10-----10------|----------------------------------------| 
------------------10--13-----------------13------13--|--10------10--10--10----11----10--------| 
--10------10--12-------------------------------------|------12----------------------------12--| 
------12---------------------------------------------|----------------------------------------| 
-----------------------------------------------------|----------------------------------------| 
-----------------------------------------------------|----------------------------------------| 
 
         C    Bb                  C               Dm 
-------------------------------|---------------------------------------| 
-------------------------------|--5-6-5h6h5----------------------------| 
--10--9----7h-9--7~---5-----7--|------------7--5-----------------------| 
-------------------------7-----|------------------7--6--5--3--5--3-----| 
-------------------------------|------------------------------------5/-| 
-------------------------------|---------------------------------------| 
 
      C   Bb                   C               Dm 
------13~-10~-----------10--|--12--10/-12--10----------------------| 
--------------------13------|------------------13----10------10~---| 
----------------------------|----------------------------13--------| 
----------------------------|--------------------------------------| 
----------------------------|--------------------------------------| 
----------------------------|--------------------------------------| 
 
            C   Bb                 C             Dm 
----10------13~-10~-------------|----15h-13--15--15--13~-------------| 
--------10----------------13----|--------------------------------15--| 
--------------------------------|----------------------------14------| 
--------------------------------|------------------------------------| 
--------------------------------|------------------------------------| 
--------------------------------|------------------------------------| 
 
                C   Bb                    C               Dm 
--12--13/-15----13--15--x----12--13----|--10------------------------------------------| 
---------------------------------------|------13--10----------13------10--------------| 
---------------------------------------|--------------12--10------12~-----12--10------| 
---------------------------------------|------------------------------------------12--| 
---------------------------------------|----------------------------------------------| 
---------------------------------------|----------------------------------------------| 
 
 
           C Bb                          C          Dm 
--10----------------------------------|-------------------------| 
--10---------10------10~--------------|-------------------------| 
--10----9----9h--10--9~----9h-10------|----5--------------------| 
----------------------------------12--|-------7--6--5--3~-------| 
--------------------------------------|-------------------------| 
--------------------------------------|-------------------------| 
 
Dm       Bb          C                Dm 
                                              Lay__la_ 
Dm       Bb          C                Dm 
                     Got_ me_ on_ my_ knees__ Lay__la_ 
Dm       Bb          C                   Dm 
                     Beg_ging_ dar_lin'_ please__, Layla 
Dm       Bb          C                   Dm 
                     Dar_lin'_ won't you ease_ my_ wor_ried_ mind__ 
 
Dm       Bb          C                Dm 
                                              Lay__la_ 
Dm       Bb          C                Dm 
                     Got_ me_ on_ my_ knees__ Lay__la_ 
Dm       Bb          C                   Dm 
                     Beg_ging_ dar_lin'_ please__, Layla 
Dm       Bb          C 
                     Dar__lin'__ won't you ease__ my__ wor__ried____ 
Dm   / / / / 
mind_____ 


Que te parecio? Calificalo con estrellas!!

Rating: 7.0/10 (83 votos)

Este fichero es trabajo propio de su transcriptor y representa su interpretación personal de la canción. El material contenido en esta página es para exclusivo uso privado, por lo que se prohibe su reproducción o retransmisión, así como su uso para fines comerciales.


Comentario de juan cruz_c
medio desordenado pero sirve
Deja tus comentarios:

Letras de Eric Clapton
Letras de canciones | Musica Independiente