Acordes y tablaturas para guitarra

Acordes y Tablaturas
Usuario: Password:

Buscar:
Acordes y Tablaturas >> Letra B >> Acordes de Black sabbath >> Paranoid (2)
Tablatura de Paranoid, Black sabbath

Paranoid (2)

Black sabbath






exlente cancion !!!
******NAPM******

 Intro
 Gtrs I, II
|--------------------------------|---------------------------------------------|
|--------------------------------|---------------------------------------------|
|--------------------------------|---------------------------------------------|
|--------------------------------|---------------------------------------------|
|-12h14----(14)------(14)-12s14--|------------------------------------11-11h12-|
|-12-12----(12)------(12)-10s12--|-12s10--(10)-(10)--(10)-(10)---(10)--0--0----|

|-------------------------------------|
|-------------------------------------|
|-------------------------------------|
|-------------------------------------|
|-11----(11)--(11)-(11)---(11)-12s14--|
|--0-----(0)---(0)--(0)----(0)-10s12--|

|---------------------------------------------|
|---------------------------------------------|
|---------------------------------------------|
|---------------------------------------------|
|------------------------------------11-11h12-|
|-12s10--(10)-(10)--(10)-(10)---(10)--0--0----|

|------------------------------|-----------------------------------|
|------------------------------|-----------------------------------|
|------------------------------|-----------------------------------|
|------------------------------|-----------------------------------|
|-/14-------(14)---(14)-12s14--|-----------------------12-14-14-14-|
|---0--------(0)----(0)-10s12--|-12s10--(10)-(10)------10-12-12-12-|

|----------------------------------------------------|
|----------------------------------------------------|
|----------------------------------------------------|
|----------------------------------------------------|
|-12h14----(14)--(14)-14-14s12--(12)-(12)-(12)-12-12-|
|-12-12----(12)--(12)-12-12s10--(10)-(10)-(10)-10-10-|

|------------------------------------------------|
|------------------------------------------------|
|------------------------------------------------|
|------------------------------------------------|
|-12s14--(14)-(14)--14-14-14s12--(12)-(12)--(12)-|
|-10s12--(12)-(12)--12-12-12s10--(10)-(10)--(10)-|

|-----------------|----------|-----------------|------|
|-----------------|----------|-----------------|------|
|-----------------|----------|-----------------|------|
|-----------------|----------|-----------------|------|
|-12-14-----------|----------|-12-14-----------|------|
|-10-12-----------|----------|-10-12-----------|------|

   Verse
|------------------|----------|-----------------|-------|
|o-----------------|----------|-----------------|------o|
|------------------|----------|-----------------|-------|
|------------------|----------|-----------------|-------|
|o-12-14-----------|----------|-12-14-----------|------o|
|--10-12-----------|----------|-10-12-----------|-------|

|-----------------|---------------------|
|-----------------|---------------------|
|-----------------|---------4p2p0-------|
|-----------------|---------------2p(0)-|
|-12-14-----------|---------------------|
|-10-12-----------|---------------------|

|---------------------|------------------|
|---------------------|------------------|
|---------------------|-------------/11--|
|---------------------|------0tr2---/12--|
|-12-14-(14)---------|------------------|
|-10-12-(12)---------|------------------|

|---------------------|---------12-(12)-|---------------------|------|
|---------------------|---------12-(12)-|---------------------|------|
|-11------------------|---------12-(12)-|---------------------|------|
|-12------------------|------------------|---------------------|------|
|-12-14-(14)---------|------------------|-12-14-(14)---------|------|
|-10-12-(12)---------|------------------|-10-12-(12)---------|------|


 Interlude

|-------------------------|---------------------|
|-------------------------|---------------------|
|-------------------------|-----------12--(12)-|
|-------------------------|---------------------|
|-12-14-(14)-------17-16-|-15----14------------|
|-10-12-(12)-------15-14-|-13----12------------|

|-------------------------|---------------------|
|-------------------------|---------------------|
|-------------------------|---------------------|
|-------------------------|-----------12tr14----|
|-12-14-(14)-------17-16-|-15----14------------|
|-10-12-(12)-------15-14-|-13----12------------|

|-------------------------|---------------------|
|-------------------------|---------------------|
|-------------------------|-----------12--(12)-|
|-------------------------|---------------------|
|-12-14-(14)-------17-16-|-15----14------------|
|-10-12-(12)s3------15-14-|-13----12------------|

|-------------------------|----------------------|
|-------------------------|----------------------|
|-------------------------|----------------------|
|-------------------------|----------------------|
|-12-14-(14)-------17-16-|-15----14--14-(14)---|
|-10-12-(12)-------15-14-|-13----12--12-(12)---|


  PM----|            PM--|      PM----|            PM---------|
|---------12-(12)------------|---------12-(12)--------------|
|---------12-(12)------------|---------12-(12)--------------|
|---------12-(12)------------|---------12-(12)--------------|
|-----------------------------|-------------------------------|
|-----------------------------|-------------------------------|
|-0-0-0-0------------0---0-3--|-0-0-0-0------------0---0-3----|


  PM----|            PM--|      PM----|            PM-----------|
|---------12-(12)------------|---------12-(12)----------------|
|---------12-(12)------------|---------12-(12)----------------|
|---------12-(12)------------|---------12-(12)----------------|
|-----------------------------|---------------------------------|
|-----------------------------|---------------------------------|
|-0-0-0-0------------0---0-3--|-0-0-0-0------------0---0-3------|


 Verse
  Gtr I
  PM----|            PM------|               PM----|            PM----------------------|
|------------------------------------------|--------------------------------------------|
|------------------------------------------|--------------------------------------------|
|------------------------------------------|--------------------------------------------|
|----------2p0-----------------2p0---------|----------2p0-----------------2p0-----------|
|------------------------------------------|--------------------------------------------|
|-0-0-0-0------------0---0---0-----2b3r(2)-|-0-0-0-0------------0---0---0-----2b3r(2)---|

  Gtr II
  PM----|                PM--|               PM----|                PM------------------|
|---------12---(12)-----------------------|---------12---(12)-------------------------|
|---------12---(12)-----------------------|---------12---(12)-------------------------|
|---------12---(12)-----------------------|---------12---(12)-------------------------|
|------------------------------------------|--------------------------------------------|
|------------------------------------------|--------------------------------------------|
|-0-0-0-0----------------0---0-3-----------|-0-0-0-0----------------0---0-3-------------|


  PM----|            PM------|               PM----|            PM---------------------|
|------------------------------------------|-------------------------------------------|
|------------------------------------------|-------------------------------------------|
|------------------------------------------|-------------------------------------------|
|----------2p0-----------------2p0---------|----------2p0-----------------2p0----------|
|------------------------------------------|-------------------------------------------|
|-0-0-0-0------------0---0---0-----2b3r(2)-|-0-0-0-0------------0---0---0-----2b3r(2)--|
|
| PM----|                PM--|               PM----|                PM-------|
|---------12---(12)-----------------------|---------12---(12)--------------|
|---------12---(12)-----------------------|---------12---(12)--------------|
|---------12---(12)-----------------------|---------12---(12)--------------|
|------------------------------------------|---------------------------------|
|------------------------------------------|---------------------------------|
|-0-0-0-0----------------0---0-3-----------|-0-0-0-0----------------0---0-3--|

  Gtrs I, II
  PM----|       PM------|               PM----|       PM----------------------|
|-------------------------------------|---------------------------------------|
|-------------------------------------|---------------------------------------|
|-------------------------------------|---------------------------------------|
|---------2p0-------------2p0---------|---------2p0-------------2p0-----------|
|-------------------------------------|---------------------------------------|
|-0-0-0-0-------0---0---0-----2b3r(2)-|-0-0-0-0-------0---0---0-----2b3r(2)---|


  PM----|       PM------|               PM----|       PM-------------------------|
|-------------------------------------|------------------------------------------|
|-------------------------------------|------------------------------------------|
|-------------------------------------|------------------------------------------|
|---------2p0-------------2p0---------|---------2p0-------------2p0--------------|
|-------------------------------------|------------------------------------------|
|-0-0-0-0-------0---0---0-----2b3r(2)-|-0-0-0-0-------0---0---0-----2b3r(2)------|


 Interlude
  PM----|            PM--|      PM----|            PM---------|
|---------12-(12)------------|---------12-(12)--------------|
|---------12-(12)------------|---------12-(12)--------------|
|---------12-(12)------------|---------12-(12)--------------|
|-----------------------------|-------------------------------|
|-----------------------------|-------------------------------|
|-0-0-0-0------------0---0-3--|-0-0-0-0------------0---0-3----|


  PM----|            PM--|      PM----|            PM-----------|
|---------12-(12)------------|---------12-(12)----------------|
|---------12-(12)------------|---------12-(12)----------------|
|---------12-(12)------------|---------12-(12)----------------|
|-----------------------------|---------------------------------|
|-----------------------------|---------------------------------|
|-0-0-0-0------------0---0-3--|-0-0-0-0------------0---0-3------|


   Verse
    PM----|       PM------|               PM----|       PM---------------------|
|--------------------------------------|---------------------------------------|
|o-------------------------------------|---------------------------------------|
|--------------------------------------|---------------------------------------|
|----------2p0-------------2p0---------|---------2p0-------------2p0-----------|
|o-------------------------------------|---------------------------------------|
|--0-0-0-0-------0---0---0-----2b3r(2)-|-0-0-0-0-------0---0---0-----2b3r(2)---|


  PM----|       PM------|               PM----|       PM--------------------------|
|-------------------------------------|-------------------------------------------|
|-------------------------------------|----------------------------------------o--|
|-------------------------------------|-------------------------------------------|
|---------2p0-------------2p0---------|---------2p0-------------2p0---------------|
|-------------------------------------|----------------------------------------o--|
|-0-0-0-0-------0---0---0-----2b3r(2)-|-0-0-0-0-------0---0---0-----2b3r(2)-------|

 Interlude

|-------------------------|---------------------|
|-------------------------|---------------------|
|-------------------------|-----------12--(12)-|
|-------------------------|---------------------|
|-12-14-(14)-------17-16-|-15----14------------|
|-10-12-(12)-------15-14-|-13----12------------|

|-------------------------|---------------------|
|-------------------------|---------------------|
|-------------------------|---------------------|
|-------------------------|-----------12tr14----|
|-12-14-(14)-------17-16-|-15----14------------|
|-10-12-(12)-------15-14-|-13----12------------|

|-------------------------|---------------------|
|-------------------------|---------------------|
|-------------------------|-----------12--(12)-|
|-12-14-(14)-------17-16-|-15----14------------|
|-12-14-(14)-------17-16-|-15----14------------|
|-10-12-(12)s3------15-14-|-13----12------------|

|-------------------------|------------------|
|-------------------------|------------------|
|-------------------------|------------------|
|-12-14-(14)-------17-16-|-15----14---------|
|-12-14-(14)-------17-16-|-15----14---------|
|-10-12-(12)-------15-14-|-13----12--12----|


 Guitar Solo
|------------------------------------|----------------------------------|
|------------------------------------|----------------------------------|
|------------------------------------|----------------------------------|
|------------------------------------|----------------------------------|
|-11s12---12s11---11s7---7s5---5s7-7-|-(7)--7s5---5s7-7-7s11---11s12----|
|-------0-------0------0-----0-------|----------0------------0-------0--|

|---------------------------------------|
|---------------------------------------|
|---------------------------------------|
|---------------------------------12h14-|
|-12s11---11s12---12s14-14--12h14-------|
|-------0-------0-----------------------|

|------------------------------------------------12---|
|---------------------------------------------12------|
|----------------12b12.5-------------12-14b15---------|
|-14-------12h14---------------12h14------------------|
|----12h14---------------12h14------------------------|
|-----------------------------------------------------|

  Gtr I
|----------12----------12------------------12-------------------------|
|-------12----------12----15b17-15b17-(15)----15-12-------12----15p12-|
|-14b15-------14b15---------------------------------14b16-------------|
|---------------------------------------------------------------------|
|---------------------------------------------------------------------|
|---------------------------------------------------------------------|

 Gtr II
|----------12----------12------------------12-------------12----------|
|-------12----------12----15b17-15b17-(15)----15-12-15b16----15-15p12-|
|-14b15-------14b15---------------------------------------------------|
|---------------------------------------------------------------------|
|---------------------------------------------------------------------|
|---------------------------------------------------------------------|

  Gtr III
   W
|---------------------------------------------------------------------|
|---------------------------------------------------------------------|
|---------------------------------------------------------------------|
|---------------------------------------------------------------------|
|---------------------------------------------------------------------|
|---------------------------------------------------------------------|

|----------------------------------------------------------------------------------------------|
|-------12-15p12----------15p12----------------------------------------------------------------|
|-14----14-------14----14-------14p===12-14b16----14-----12h=14p12----12-----------------------|
|------------------------------------------------------------------14-------14-14p12-----------|
|------------------------------------------------------------------------------------14--------|
|----------------------------------------------------------------------------------------------|

|------------------------------------------------------------------12----------15----15pb17----|
|-15p12----12----15p12----12----15p12----12---------------------------15b17--------------------|
|-------14-------------14-------------14----------14b16-(14)-----------------------------------|
|----------------------------------------------------------------------------------------------|
|----------------------------------------------------------------------------------------------|
|----------------------------------------------------------------------------------------------|

|------------------------------------------------------------------12----------15----15pb17----|
|-15p12----15p12-------12-15p12-------12-15p===12----------------------------------------------|
|-------14-------14-------------14----------------14b16-(14)-----------------------------------|
|----------------------------------------------------------------------------------------------|
|----------------------------------------------------------------------------------------------|
|----------------------------------------------------------------------------------------------|

|---------------------------------------------------------------12----------|
|---------------------------------------------------------12-------15p12----|
|------------------------------------------------12-14b15----------------14-|
|-12----------------------------12----(12)s14-------------------------------|
|--------14s===12-10-12s====14----------------------------------------------|
|---------------------------------------------------------------------------|

|-15b17--15b17-------15b17r(15)-12-10---------------------------------------|
|--------------------------------------12--------12-15----15p12-------------|
|------------------------------------------14b16----------------15-14p12----|
|------------------------------------------------------------------------14-|
|---------------------------------------------------------------------------|
|---------------------------------------------------------------------------|

|-15b17r(15)------12------------12------------------------------------------|
|--------------------15b17---------15--12--------12-------15p12-------------|
|------------------------------------------14b16-12-------------14-14p12----|
|---------------------------------------------------14-------------------14-|
|---------------------------------------------------------------------------|
|---------------------------------------------------------------------------|

|-----------------------------------------------------------------------------||----------------|
|-----------------------------------------------------------------------------||----------------|
|-12----(12)b13---------------------------------------------------------------||----------------|
|---------------14p==========12-12h====14--14----(14)-------------------------||----------------|
|-----------------------------------------------------------------------------||----------------|
|-------------------------------------------------------------------------12-||--0-------------|

|-----------------------------------------------------------------------------||----------------|
|-15p12-----------------------------------------------------------------------||----------------|
|--------14b15r(14)pb16r=14p=12-12--------------------------------------------||----------------|
|------------------------------------------14p12-(12)-14----------------------||-12h14--(14)----|
|------------------------------------------------------------14----10h12-10--||----------------|
|-----------------------------------------------------------------------------||----------------|

|------------------------------------------12---------------------------------||----------------|
|-------------------------------15b17-(15)----15--12--------------------------||----------------|
|-12-----14-----14b15r==(14)p12-----------------------14b16r(14)p12-14----12--||----------------|
|-----------------------------------------------------------------------------||----------------|
|-----------------------------------------------------------------------------||----------------|
|-----------------------------------------------------------------------------||----------------|

  Gtrs I, II
|------------------------------------------|--------------------------------|
|------------------------------------------|--------------------------------|
|-9b11-9b11-9b11-9b11-(9)pb11r(9)-7---7s9--|-(9)s7-----7h9------7h9-(9)-7-9-|
|-----------------------------------9------|-------7h9------7h9-------------|
|------------------------------------------|--------------------------------|
|------------------------------------------|--------------------------------|

|---------------------------------------------------------------------------------------|
|---------------------------------------------------------------------------------------|
|-9b11r(9)-7tr9-9b11r(9)-7tr9-9b11r(9)-7tr9-7tr9-9b11r(9)-7tr9-9b11r(9)-7tr9-9b11r(9)---|
|---------------------------------------------------------------------------------------|
|---------------------------------------------------------------------------------------|
|---------------------------------------------------------------------------------------|

|----------------------------------------------------------------------------|
|----------------------------------------------------------------------------|
|-7tr9-9b11r(9)-7tr9-7tr9-9b11r(9)p7tr9-9b11r(9)p7tr9-9b11r(9)p7tr9-9b11r(9)-|
|----------------------------------------------------------------------------|
|----------------------------------------------------------------------------|
|----------------------------------------------------------------------------|

|------------------------------------------|
|------------------------------------------|
|-9b12-9b12-9b12-9b12-(9)pb12r(9)-9p7-7s9--|
|------------------------------------------|
|------------------------------------------|
|------------------------------------------|

|---------------|----------------------------------|-----------------------------------------------------------------|
|---------------|----------------------------------|-----------------------------------------------------------------|
|(9)--------(9)/|----------------------------------|-----------------------------------------------------------------|
|---------------|----------------------------------|-----------------------------------------------------------------|
|---------------|11s12-12-12s11---11s7---7s5---5s7-|(6)---6b7-(6)pb7r(6)-6b7-(6)pb7r(6)-6b7-(6)pb7r(6)-6b7-(6)pb7r(6)|
|---------------|---------------0------0-----0-----|----0-------------0--------------0--------------0----------------|

|-----------------------------------------------------------------------|
|-----------------------------------------------------------------------|
|-----------------------------------------------------------------------|
|-----------------------------------------------------------------------|
|-----6b7-(6)pb7r(6)-6b7-(6)pb7r(6)-6b7-(6)pb7r(6)-6b7-(6)pb7r(6)-------|
|-0-0-------------0--------------0--------------0-----------------0-----|


 Interlude
|---------------------|------------------------------|
|---------------------|------------------------------|
|---------------------|------------------------------|
|---------------------|------------------------------|
|-14-------(14)-14-14-|-14s12--(12)----(12)-12-12-12-|
|-12-------(12)-12-12-|-12s10--(10)----(10)-10-10-10-|

|-----------------------------|---------------------------|
|-----------------------------|---------------------------|
|-----------------------------|---------------------------|
|-----------------------------|---------------------------|
|-12s14--(14)----(14)-14-(14)-|-14s12--(12)-(12)-(12)-----|
|-10s12--(12)----(12)-12-(12)-|-12s10--(10)-(10)-(10)-----|


 Interlude
|------------------------------------|
|------------------------------------|
|------------------------------------|
|----------12---------------12----12-|
|----14----------14-(14)-------14----|
|-12----12----12---------12----------|

|------------------------------------|-----------------------------|
|------------------------------------|-----------------------------|
|------------------------------------|-----------------------------|
|----------12---------------12----12-|-----------------------------|
|----14----------14-(14)-------14----|-14---9---12-(12)-12-12-12/--|
|-12----12----12---------12----------|-12---7---10-(10)-10-10-10/--|

|------------------------------------|----------------------------|
|------------------------------------|----------------------------|
|------------------------------------|----------------------------|
|----------12---------------12----12-|----------------------------|
|----14----------14-(14)-------14----|-14---17---14-(14)-14-14----|
|-12----12----12---------12----------|-12---15---12-(12)-12-12-12-|

|------------------------------------|-----------------------------|
|------------------------------------|-----------------------------|
|------------------------------------|-----------------------------|
|----------12---------------12----12-|-----------------------------|
|----14----------14-(14)-------14----|-14---9---12-(12)-12-12------|
|-12----12----12---------12----------|-12---7---10-(10)-10-10-10---|

|------------------------------------|
|------------------------------------|
|------------------------------------|
|----------12---------------12----12-|
|----14----------14-(14)-------14----|
|-12----12----12---------12----------|

|----------------------------|-------------------------------------|
|----------------------------|-------------------------------------|
|----------------------------|-------------------------------------|
|----------------------------|----------12---------------12----12--|
|-14---17---14-(14)-14-14----|----14----------14-(14)-------14-----|
|-12---15---12-(12)-12-12-12-|-12----12----12---------12-----------|

|------------------------------------|
|------------------------------------|
|------------------------------------|
|----------12---------------12----12-|
|----14----------14-(14)-------14----|
|-12----12----12---------12----------|

|------------------------------------|-------------------------------------|
|------------------------------------|-------------------------------------|
|------------------------------------|-------------------------------------|
|----------12---------------12----12-|----------12---------------12----12--|
|----14----------14-(14)-------14----|----14----------14-(14)-------14-----|
|-12----12----12---------12----------|-12----12----12---------12-----------|

|------------------------------------|------------------------------------|
|------------------------------------|------------------------------------|
|------------------------------------|------------------------------------|
|----------10---------------10----10-|----------10---------------10----10-|
|----12----------12-(12)-------12----|----12----------12-(12)-------12----|
|-10----10----10---------10----------|-10----10----10---------10----------|

|-----------------------------|-----------------------------|------------------|------|
|-----------------------------|-----------------------------|------------------|------|
|-----------------------------|-----------------------------|------------------|------|
|--------8-------------8----8-|--------8-------------8----8-|------------------|------|
|---10-------10-(10)-----10---|---10-------10-(10)-----10---|-9----(9)-10---10-|-9----|
|-8----8---8---------8--------|-8----8---8---------8--------|-7----(7)--8----8-|-7----|

 Outro
|----------------------|---------------|--------------------|-----------------|
|----------------------|---------------|--------------------|-----------------|
|----------------------|---------------|--------------------|-----------------|
|-------------4--5-4h5-|-4----4--------|------------4--5--7-|-7----7-4--------|
|-5h=7--(7)------------|--------5----5-|-5s=7---------------|-----------5-----|
|-0-(0)-(0)-0----------|-----------7---|-0-(0)--0-0---------|-------------7---|

|------------------------|---------------|
|------------------------|---------------|
|------------------------|---------------|
|---------------4--5-4h5-|-4----4--------|
|-5h=7--(7)--------------|--------5----5-|
|-0-(0)-(0)-0-0----------|-----------7---|

|---------------------|-------------------|
|---------------------|-------------------|
|---------------------|-------4-4----4s7--|
|-------------4--5--7-|-7-----------------|
|-5s=7--(7)-----------|-------------------|
|-0-(0)-(0)-0---------|-------------------|

|---------------------------------|--------------------------------------------------------|
|---------------------------------|--------------------------------------------------------|
|-7h9-9--7-9b11-9b11-9b11r(9)-7-9-|-(9)--7---7-9-9b11r(9)p7tr9-9b11r(9)p7tr9-9b11r(9)p7tr9-|
|---------------------------------|--------9-----------------------------------------------|
|---------------------------------|--------------------------------------------------------|
|---------------------------------|--------------------------------------------------------|

|----------------------------------------------------------------------------------------|
|----------------------------------------------------------------------------------------|
|-(7tr9)-9b11r(9)p7tr9-9b11r(9)p7tr9-9b11r(9)p7tr9-9b11r(9)p7tr9-(7tr9)-9b11r(9)p7tr9----|
|----------------------------------------------------------------------------------------|
|----------------------------------------------------------------------------------------|
|----------------------------------------------------------------------------------------|

  Gtr I
|----------------------------------------------------------------------------|-------------------------------|
|----------------------------------------------------------------------------|-------------------------------|
|9b11r(9)p7tr9------9b11r(9)p7tr9-9b11r(9)p=7h=====9------9b11r(9)p==7-9----7|-7--9------(9)-----7-9--7h9-9-9|
|----------------------------------------------------------------------------|-------------------------------|
|----------------------------------------------------------------------------|-------------------------------|
|----------------------------------------------------------------------------|-------------------------------|

Gtr II
|----------------------------------------------------------------------------|-------------------------------|
|----------------------------------------------------------------------------|-------------------------------|
|9b12----------9b12----------9b12-9b12-----(9)pb12r===(9)-7------------7s9---|(9)s===7s9-(9)-----7h9------7h9|
|------------------------------------------------------------------9---------|---------------7h9------7h9----|
|----------------------------------------------------------------------------|-------------------------------|
|----------------------------------------------------------------------------|-------------------------------|

|------------------------------|------------------------------------------------------------|
|------------------------------|------------------------------------------------------------|
|-(9)-----7h9------7h9-(9)-7-9-|-9b11r(9)p7h9p7---------------------------------------------|
|-----7h9------7h9-------------|----------------9-7---7s5-----5s4-------4h5p==4-------4h====|
|------------------------------|------------------------------------7-------------7---------|
|------------------------------|------------------------------------------------------------|

|------------------------------|------------------------------------------------------------|
|------------------------------|------------------------------------------------------------|
|-(9)-----7-9------7-9-(9)-----|------------------------------------------------------------|
|-----7h9------7-9---------9p7-|-9p=======7s==5-7-5s4-5-4h5p4---4h5p==4-----4h==5p==4-------|
|------------------------------|------------------------------7---------7-------------7-----|
|------------------------------|------------------------------------------------------------|

|-------------------------------------------------|
|-------------------------------------------------|
|-------------------------------------------------|
|-5p4-----4h5p==4-----4h5p==4-------4h5-7-4h5p4---|
|-------7-----------7-----------7---------------7-|
|-------------------------------------------------|

|-------------------------------------------------|
|-------------------------------------------------|
|-------------------------------------------------|
|-4---5---7---4h==5p4-----4h==5p==4---x-----------|
|---------------------7-------------7---7-5-----5-|
|-------------------------------------------------|

|----------------------|------------------|
|----------------------|------------------|
|----------------------|------------------|
|-------------4--5-4h5-|-4----4-----------|
|-5s=7--(7)------------|--------5----5----|
|-0-(0)-----0----------|-----------7------|

|----------------------|------------------|
|----------------------|------------------|
|----------------------|------------------|
|-------------4--5-4h5-|-4----4-----------|
|-5s=7--(7)------------|--------5----5----|
|-0-(0)-----0----------|-----------7------|

  Gtrs I, II
|---------------------|---------------|----------------------|---------------|
|---------------------|---------------|----------------------|---------------|
|---------------------|---------------|----------------------|---------------|
|-------------4--5--7-|-7----7-4------|-------------4--5-4h5-|-4----4--------|
|-5s=7--(7)-----------|-----------5---|-5s=7--(7)------------|--------5----5-|
|-0-(0)-----0---------|-------------7-|-0-(0)-----0----------|-----------7---|

|---------------------|--------------------|
|---------------------|--------------------|
|---------------------|--------------------|
|-------------4--5--7-|-7----7-4-----------|
|-5s=7--(7)-----------|-----------5-(5)/---|
|-0-(0)-----0---------|------------------0-|

|------------------------------------|------------------------------------|
|------------------------------------|------------------------------------|
|------------------------------------|------------------------------------|
|----------12---------------12----12-|----------12---------------12----12-|
|----14----------14-(14)-------14----|----14----------14-(14)-------14----|
|-12----12----12---------12----------|-12----12----12---------12----------|

|------------------------------------|------------------------------------|
|------------------------------------|------------------------------------|
|------------------------------------|------------------------------------|
|----------12---------------12----12-|----------12---------------12----12-|
|----14----------14-(14)-------14----|----14----------14-(14)-------14----|
|-12----12----12---------12----------|-12----12----12---------12----------|

|------------------------------------|-----------*|
|------------------------------------|-----------*|
|------------------------------------|-9--------*|
|----------12---------------12----12-|-9--------*|
|----14----------14-(14)-------14----|-7--------*|
|-12----12----12---------12----------|-0---------*|


Artist: Black Sabbath
Album: Paranoid
Song: Paranoid
Tuning: Standard
Tabbed: Lacrisp


|------------------------------------------------------------------------------|
|------------------------------------------------------------------------------|
|------------------------------------------------------------------------------|
|------------------------12h14-----12----------------------------12h14-----12--|
|-12h14-12h14-12h14-12h14-----12h14--14---12h14-12h14-12h14-12h14-----12h14—-14|
|-12----12----12--------------------------12----12----12-----------------------|

|------------------------------------------------------------------------------|
|------------------------------------------------------------------------------|
|------------------------------------------------------------------------------|
|------------------------12h14-----12----------------------------12h14-----12--|
|-12h14-12h14-12h14-12h14-----12h14--14---12h14-12h14-12h14-12h14-----12h14—-14|
|-12----12----12--------------------------12----12----12-----------------------|

|-----------------------------------------------------------------------------|
|-----------------------------------------------------------------------------|
|-----------------------------------------------------------------------------|
|-----------------------------------------------------------------------------|
|-14-14-14-14-14-14-14-14-14-14-14-14-144-14-14-14-12-12-12-12-12-12-12-12-12-|
|-12-12-12-12-12-12-12-12-12-12-12-12-122-12-12-12-10-10-10-10-10-10-10-10-10-|
 {...................................pm....................................}

|-------------------|
|--------------12---|
|--------------12---|
|-12-----------12---|
|-10--12--14--------|
|-----10--12--------|


|-----------------------------------------------------------------------------|
|-----------------------------------------------------------------------------|
|-----------------------------------------------------------------------------|
|-----------------------------------------------------------------------------|
|-14-14-14-14-14-14-14-14-14-14-14-14-144-14-14-14-12-12-12-12-12-12-12-12-12-|
|-12-12-12-12-12-12-12-12-12-12-12-12-122-12-12-12-10-10-10-10-10-10-10-10-10-|
  {...................................pm....................................}

|--------------|
|--------------|
|--------------|
|-12-----------|
|-10--12--14---|
|-----10--12---|

|-------------------------------------------------------------------|
|-------------------------------------------------------------------|
|-------------------------------------------------------------------|
|-------------------------------------------------------------------|
|-14-14--10--12--14-14-14-14-14-14-14-144-14-14-14-14-14-14-14-14---|
|-12-12---8--10--12-12-12-12-12-12-12-122-12-12-12-12-12-12-12-12---|
                 {.....................pm.......................}

|-------------------------------------------------------------------|
|-------------------------------------------------------------------|
|-------------------------------------------------------------------|
|-------------------------------------------------------------------|
|-14-14--10--12--14-14-14-14-14-14-14-144-14-14-14-14-14-14-14-14---|
|-12-12---8--10--12-12-12-12-12-12-12-122-12-12-12-12-12-12-12-12---|
                 {.....................pm.......................}

|-----------------------------------------------------------------------------|
|-----------------------------------------------------------------------------|
|-----------------------------------------------------------------------------|
|-----------------------------------------------------------------------------|
|-14-14-14-14-14-14-14-14-14-14-14-14-144-14-14-14-12-12-12-12-12-12-12-12-12-|
|-12-12-12-12-12-12-12-12-12-12-12-12-122-12-12-12-10-10-10-10-10-10-10-10-10-|
  {...................................pm....................................}

|-------------------|
|--------------12---|
|--------------12---|
|-12-----------12---|
|-10--12--14--------|
|-----10--12--------|

|-----------------------------------------------------------------------------|
|-----------------------------------------------------------------------------|
|-----------------------------------------------------------------------------|
|-----------------------------------------------------------------------------|
|-14-14-14-14-14-14-14-14-14-14-14-14-144-14-14-14-12-12-12-12-12-12-12-12-12-|
|-12-12-12-12-12-12-12-12-12-12-12-12-122-12-12-12-10-10-10-10-10-10-10-10-10-|
  {...................................pm....................................}

|--------------|
|--------------|
|--------------|
|-12-----------|
|-10--12--14---|
|-----10--12---|

 BRIDGE
|-------------------------------------------------------|
|-------------------------------------------------------|
|-------------------------------------------------------|
|-------------------------------------------------------|
|-14-14--------14-12-------------(12)/144-------12------|
|-12-12--------12-10-------------(10)/122-------10------|

|-----------------------------------------------------------------------------|
|-----------------------------------------------------------------------------|
|-----------------------------------------------------------------------------|
|-----------------------------------------------------------------------------|
|-14-14-14-14-14-14-14-14-14-14-14-14-144-14-14-14-12-12-12-12-12-12-12-12-12-|
|-12-12-12-12-12-12-12-12-12-12-12-12-122-12-12-12-10-10-10-10-10-10-10-10-10-|
  {...................................pm....................................}

|-------------------|
|--------------12---|
|--------------12---|
|-12-----------12---|
|-10--12--14--------|
|-----10--12--------|

|-----------------------------------------------------------------------------|
|-----------------------------------------------------------------------------|
|-----------------------------------------------------------------------------|
|-----------------------------------------------------------------------------|
|-14-14-14-14-14-14-14-14-14-14-14-14-144-14-14-14-12-12-12-12-12-12-12-12-12-|
|-12-12-12-12-12-12-12-12-12-12-12-12-122-12-12-12-10-10-10-10-10-10-10-10-10-|
  {...................................pm....................................}

|-------------------|
|--------------12---|
|--------------12---|
|-12-----------12---|
|-10--12--14--------|
|-----10--12--------|

|-----------------------------------------------------------------------------|
|-----------------------------------------------------------------------------|
|-----------------------------------------------------------------------------|
|-----------------------------------------------------------------------------|
|-14-14-14-14-14-14-14-14-14-14-14-14-144-14-14-14-12-12-12-12-12-12-12-12-12-|
|-12-12-12-12-12-12-12-12-12-12-12-12-122-12-12-12-10-10-10-10-10-10-10-10-10-|
  {...................................pm....................................}

|-------------------|
|--------------12---|
|--------------12---|
|-12-----------12---|
|-10--12--14--------|
|-----10--12--------|

|-----------------------------------------------------------------------------|
|-----------------------------------------------------------------------------|
|-----------------------------------------------------------------------------|
|-----------------------------------------------------------------------------|
|-14-14-14-14-14-14-14-14-14-14-14-14-144-14-14-14-12-12-12-12-12-12-12-12-12-|
|-12-12-12-12-12-12-12-12-12-12-12-12-122-12-12-12-10-10-10-10-10-10-10-10-10-|
  {...................................pm....................................}

|--------------|
|--------------|
|--------------|
|-12-----------|
|-10--12--14---|
|-----10--12---|

|---------------------------------------------------|
|---------------------------------------------------|
|--9^11`9-7-9~~-7-9-9p7-----------------------------|
|-----------------------97-5h7-5h7-------5---------|
|----------------------------------5h7~----7-7~-----|
|---------------------------------------------------|
 (Guitar 1 {Left Channel} & Guitar 2 {Right Channel})
 (Note: Guitar 2 with heavy distortion)

|-----------------------------------------------------------------------------|
|-----------------------------------------------------------------------------|
|-----------------------------------------------------------------------------|
|-----------------------------------------------------------------------------|
|-14-14-14-14-14-14-14-14-14-14-14-14-144-14-14-14-12-12-12-12-12-12-12-12-12-|
|-12-12-12-12-12-12-12-12-12-12-12-12-122-12-12-12-10-10-10-10-10-10-10-10-10-|
  {...................................pm....................................}
 (Guitar 3)

|--------------|
|--------------|
|-12-----------|
|-12-----------|
|-10--12--14---|
|-----10--12---|
 (Guitar 3)

|----------------------------------------------------------------------------|
|-------------------8-10-10^(12`10)-8-100^(12`10)-8-10^(12`10)-8-10-8--------|
|-----------7-9--7/9---------------------------------------------------9-9-9-|
|-----5h7/9------------------------------------------------------------------|
|-5h7------------------------------------------------------------------------|
|----------------------------------------------------------------------------|
 (Guitar 1 {Left Channel} & Guitar 2 {Right Channel})

|-----------------------------------------------------------------------------|
|-----------------------------------------------------------------------------|
|-----------------------------------------------------------------------------|
|-----------------------------------------------------------------------------|
|-14-14-14-14-14-14-14-14-14-14-14-14-144-14-14-14-12-12-12-12-12-12-12-12-12-|
|-12-12-12-12-12-12-12-12-12-12-12-12-122-12-12-12-10-10-10-10-10-10-10-10-10-|
  {...................................pm....................................}
 (Guitar 3)

|--------------|
|--------------|
|--------------|
|-12-----------|
|-10--12--14---|
|-----10--12---|
 (Guitar 3)

|-------------12--------------------------------15^(17)-15^(17)-15^(17`15)-15p12---|
|-----------12--15^(17`15)-(12)-15^(17)--15p12----------------------------------15-|
|-7h9-9-9/14----------------------------------14-----------------------------------|
|----------------------------------------------------------------------------------|
|----------------------------------------------------------------------------------|
|----------------------------------------------------------------------------------|
 (Guitar 1 {Left Channel} & Guitar 2 {Right Channel})

|-----------------------------------------------------------------------------|
|-----------------------------------------------------------------------------|
|-----------------------------------------------------------------------------|
|-----------------------------------------------------------------------------|
|-14-14-14-14-14-14-14-14-14-14-14-14-144-14-14-14-12-12-12-12-12-12-12-12-12-|
|-12-12-12-12-12-12-12-12-12-12-12-12-122-12-12-12-10-10-10-10-10-10-10-10-10-|
  {...................................pm....................................}
 (Guitar 3)

|--------------|
|--------------|
|--------------|
|--------------|
|-10--12--14---|
|-----10--12---|
 (Guitar 3)

|-15p12-----15p12----------------------112-------------------------------------|
|------15p12-----15^(17)-15p12-------12---15p12--------------------------------|
|-----------------------------14^(16)----------14--14p12--12-14^(16`14)-14p12--|
|-------------------------------------------------------14---------------------|
|------------------------------------------------------------------------------|
|------------------------------------------------------------------------------|
 (Guitar 1 {Left Channel} & Guitar 2 {Right Channel})

|-----------------------------------------------------------------------------|
|-----------------------------------------------------------------------------|
|-----------------------------------------------------------------------------|
|-----------------------------------------------------------------------------|
|-14-14-14-14-14-14-14-14-14-14-14-14-144-14-14-14-12-12-12-12-12-12-12-12-12-|
|-12-12-12-12-12-12-12-12-12-12-12-12-122-12-12-12-10-10-10-10-10-10-10-10-10-|
  {...................................pm....................................}
(Guitar 3)

|--------------|
|--------------|
|--------------|
|-12-----------|
|-10--12--14---|
|-----10--12---|
 (Guitar 3)

|------------------------------------------------------------------------------------|
|------------------------------------------------------------------------------------|
|-14^(16)-12h14p12--12-----------------------------------------12--------------------|
|-----------------14---14-14p12--12--------------------12-12h14--14-12-14-12-14(10)-|
|------------------------------14---12-110-12p10--12h14------------------------------|
|-----------------------------------------------12-----------------------------------|
 (Guitar 1 {Left Channel} & Guitar 2 {Right Channel})

|-----------------------------------------------------------------------------|
|-----------------------------------------------------------------------------|
|-----------------------------------------------------------------------------|
|-----------------------------------------------------------------------------|
|-14-14-14-14-14-14-14-14-14-14-14-14-144-14-14-14-12-12-12-12-12-12-12-12-12-|
|-12-12-12-12-12-12-12-12-12-12-12-12-122-12-12-12-10-10-10-10-10-10-10-10-10-|
  {...................................pm....................................}

|-------------------|
|--------------12---|
|--------------12---|
|-12-----------12---|
|-10--12--14--------|
|-----10--12--------|

|-----------------------------------------------------------------------------|
|-----------------------------------------------------------------------------|
|-----------------------------------------------------------------------------|
|-----------------------------------------------------------------------------|
|-14-14-14-14-14-14-14-14-14-14-14-14-144-14-14-14-12-12-12-12-12-12-12-12-12-|
|-12-12-12-12-12-12-12-12-12-12-12-12-122-12-12-12-10-10-10-10-10-10-10-10-10-|
  {...................................pm....................................}

|-------------------|
|--------------12---|
|--------------12---|
|-12-----------12---|
|-10--12--14--------|
|-----10--12--------|

|-----------------------------------------------------------------------------|
|-----------------------------------------------------------------------------|
|-----------------------------------------------------------------------------|
|-----------------------------------------------------------------------------|
|-14-14-14-14-14-14-14-14-14-14-14-14-144-14-14-14-12-12-12-12-12-12-12-12-12-|
|-12-12-12-12-12-12-12-12-12-12-12-12-122-12-12-12-10-10-10-10-10-10-10-10-10-|
  {...................................pm....................................}

|-------------------|
|--------------12---|
|--------------12---|
|-12-----------12---|
|-10--12--14--------|
|-----10--12--------|

|-----------------------------------------------------------------------------|
|-----------------------------------------------------------------------------|
|-----------------------------------------------------------------------------|
|-----------------------------------------------------------------------------|
|-14-14-14-14-14-14-14-14-14-14-14-14-144-14-14-14-12-12-12-12-12-12-12-12-12-|
|-12-12-12-12-12-12-12-12-12-12-12-12-122-12-12-12-10-10-10-10-10-10-10-10-10-|
  {...................................pm....................................}

|--------------|
|--------------|
|--------------|
|-12-----------|
|-10--12--14---|
|-----10--12---|

|-------------------------------------------------------------------|
|-------------------------------------------------------------------|
|-------------------------------------------------------------------|
|-------------------------------------------------------------------|
|-14-14--10--12--14-14-14-14-14-14-14-144-14-14-14-14-14-14-14-14---|
|-12-12--8---10--12-12-12-12-12-12-12-122-12-12-12-12-12-12-12-12---|
(Guitar 1)       {.....................pm.......................}

|-------------------------------------------------------------------|
|-------------------------------------------------------------------|
|-------------------------------------------------------------------|
|-------------------------------------------------------------------|
|----------------14-------------------------------------------------|
|----------------12-(Let ring)--------------------------------------|
(Guitar 2)

|-------------------------------------------------------------------|
|-------------------------------------------------------------------|
|-------------------------------------------------------------------|
|-------------------------------------------------------------------|
|-14-14--10--12--14-14-14-14-14-14-14-144-14-14-14-14-14-14-14-14---|
|-12-12--8---10--12-12-12-12-12-12-12-122-12-12-12-12-12-12-12-12---|
                 {.....................pm.......................}

|-----------------------------------------------------------------------------|
|-----------------------------------------------------------------------------|
|-----------------------------------------------------------------------------|
|-----------------------------------------------------------------------------|
|-14-14-14-14-14-14-14-14-14-14-14-14-144-14-14-14-12-12-12-12-12-12-12-12-12-|
|-12-12-12-12-12-12-12-12-12-12-12-12-122-12-12-12-10-10-10-10-10-10-10-10-10-|
  {...................................pm....................................}

|----------------|
|-------------12-|
|-------------12-|
|-12----------12-|
|-10--12--14-----|
|-----10--12-----|

|-----------------------------------------------------------------------------|
|-----------------------------------------------------------------------------|
|-----------------------------------------------------------------------------|
|-----------------------------------------------------------------------------|
|-14-14-14-14-14-14-14-14-14-14-14-14-144-14-14-14-12-12-12-12-12-12-12-12-12-|
|-12-12-12-12-12-12-12-12-12-12-12-12-122-12-12-12-10-10-10-10-10-10-10-10-10-|
  {...................................pm....................................}

|----------------|
|-------------12-|
|-------------12-|
|-12----------12-|
|-10--12--14-----|
|-----10--12-----|

|-----------------------------------------------------------------------------|
|-----------------------------------------------------------------------------|
|-----------------------------------------------------------------------------|
|-----------------------------------------------------------------------------|
|-14-14-14-14-14-14-14-14-14-14-14-14-144-14-14-14-12-12-12-12-12-12-12-12-12-|
|-12-12-12-12-12-12-12-12-12-12-12-12-122-12-12-12-10-10-10-10-10-10-10-10-10-|
  {...................................pm....................................}

|----------------|
|-------------12-|
|-------------12-|
|-12----------12-|
|-10--12--14-----|
|-----10--12-----|

|-----------------------------------------------------------------------------|
|-----------------------------------------------------------------------------|
|-----------------------------------------------------------------------------|
|-----------------------------------------------------------------------------|
|-14-14-14-14-14-14-14-14-14-14-14-14-144-14-14-14-12-12-12-12-12-12-12-12-12-|
|-12-12-12-12-12-12-12-12-12-12-12-12-122-12-12-12-10-10-10-10-10-10-10-10-10-|
  {...................................pm....................................}

|------------------|
|------------------|
|------------------|
|-12---------------|
|-10----------14---|
|-----10^(11)/12---|

Artist: Black Sabbath
Album: Paranoid
Song: Planet Caravan
Tuning: Standard
Tabbed: kidinchains


Main Riff (Let notes ring into each other)

|-----------0?-0-----------------------|
|-----------0?-0-------------0---------|
|-----------0?-0----------0--------0---|
|-------4~~-5?-4-------4---------4---7-| x2 for Intro
|----7~~----------7?-5---------5-------| Repeat throughout
|-0~~----------------------------------|          verse

 Solo
				     	 +~~~~~
|------------------|-------------------|---------------------|
|------------------|-------------------|---------------------|
|------------------|-------2?2h3p2--2--|---------------------|
|4?--4----2--2?--2-|---2-5---------5?-5|?5?-2?-2-2-5-2?-2?-2-|
|------5-----------|-------------------|---------------5-----|
|------------------|-------------------|---------------------|

|-------------------------|------------------------|-----2-3p2|
|-------------------------|------------------------|----------|
|---------2-3?3p2--3-3p2--|-2----------------------|----------|
|-2---2-5----------------5|----5--5--5--5--2--2--2-|-2--------|
|-------------------------|------------------------|----------|
|-------------------------|------------------------|----------|

			    +~~~~
|--2----------2-|-3-5-2--2---------------|--------------------|
|-5-3p2--2-3-5--|------3?-3p2?2h3p2-2--2-|----------------3---|
|-------4-------|------------4-----4-----|-----------1-2/4--4-|
|---------------|------------------------|-------2-4----------|
|---------------|------------------------|--------------------|
|---------------|------------------------|--------------------|

     tr~~~~		   tr~~~~        +~+~+~+~+~+~+~+~+
|-3-(2)h3p2---2----------2-5-(2)h3p2-|-2----------------------|
|--------------3p2--2-3-5------------|--3p2?2hp3-2h3p2-2h3p2--|
|------------------------------------|----------4-----4-----4-|
|------------------------------------|------------------------|
|------------------------------------|------------------------|
|------------------------------------|------------------------|

	        +~~~~
|-------|-2-5p2?2h3p2--2--------|---------------3--6--5-|----|
|-2-3-5-|-------------3--3--2-2-|--------2-3-4-5--------|----|
|-------|-----------------------|-----2-4---------------|----|
|-------|-----------------------|--2-5------------------|----|
|-------|-----------------------|-----------------------|----|
|-------|-----------------------|-----------------------|----|

  +~~~~	         	     +~~~~   +~~
|-3?2h3p2--------2-3h5p2-|-2---------------------2---5-|--7--|
|--------3--2-3-5--------|--3p2-2h3p2---232--3-5-------|-----|
|------------------------|-----4------4----------------|-----|
|------------------------|-----------------------------|-----|
|------------------------|-----------------------------|-----|
|------------------------|-----------------------------|-----|

   +~~~~~~~ +~+~+~+ 	       tr~~~~~~ tr~~~~~~ tr~~~~~~
|------------------------------|----------------------------|
|-10h11p10?8-7h8p7---7---------|-8h10p8p7-------------------|
|------------------7---7p6-7-9-|----------9h11p9p7----------|
|------------------------------|-------------------9h11p9p7-|
|------------------------------|----------------------------|
|------------------------------|----------------------------|

   tr~~~~~
|-------------------------|--------------------|-------------|
|-------------------------|--------------------|-------------|
|-------------------------|--------------------|------------2|
|-7h8p7p5-----------------|---4h5p4--4---------|--2--2---5---|
|---------7--5--5--7--7---|-------------5--5---|-5-----------|
|-------------------------|--------------------|-------------|

			         +~~~~
|----------------|-----------------------------|-------------|
|----------------|-----------------------------|-------------|
|-(2)h3p2--------|--------2-3-4--2?2h3p2-------|-----2-2h3p2-|
|-----------5-2--|---2---5--------------5-2----|-2--5--------|
|----------------|-----------------------------|-------------|
|----------------|-----------------------------|-------------|

		          +~+~+
|------------------|--2--------------------|-2-3-3--5-(2)h3p2|
|------------------|---3---2h3p2-2---2-3-5-|-----------------|
|-2h3p2-2h3p2------|----4-------4-2-4------|-----------------|
|-------------5--2-|-----------------------|-----------------|
|------------------|-----------------------|-----------------|
|------------------|-----------------------|-----------------|


|--2---------|----V--12-14--15-14p12--12---|--12-----p12-----|
|---3p2--2-2-|--V-12--------------------15-|----15p14--------|
|------------|--12-------------------------|-----------------|
|------------|-----------------------------|-----------------|
|------------|-----------------------------|-----------------|
|------------|-----------------------------|-----------------|


|--------------------------------------------------|---------|
|--------------------------------------------------|---------|
|-14-(14)h15p14p12-12-(12)h14p12p11-11-(11)h12p9---|---------|
|-----------------------------------------------12-|---------|
|--------------------------------------------------|---------|
|--------------------------------------------------|---------|


|------------------------------------------------|-----------|
|------------------------------------------------|-----------|
|------------------------------------------------|-----------|
|-12-(11)h12p11?-7-(5)h7p5--5-(5)h7p5------------|-----------|
|--------------------------------------5-(5)h7p5-|-5-7--7--7-|
|------------------------------------------------|-----------|

		                                     +~~~~
|-------|---2?-3p2--2-------|---------------|----------------|
|-------|-------------3--3--|-3-5?5~~~------|----------------|
|-------|---------------4---|---------------|--15--14?12h14--|
|-------|-------------------|---------------|----------------|
|-7~~~--|-------------------|---------------|----------------|
|-------|-------------------|---------------|----------------|


|------------------|-14-12--14----(12)h14p12--12-12--|---15--|
|------------------|------------15----------15-------|-------|
|-12---------12-14-|---------------------------------|-------|
|----14-12h14------|---------------------------------|-------|
|------------------|---------------------------------|-------|
|------------------|---------------------------------|-------|

					+~~~~
|-(15)h17p15--14----5-(5)h6p5-3-|-3-----3--5-5h6p5--3-----|--|
|-------------------------------|---5--5-----------5----3-|--|
|---------------14\------------|---------------------4---|--|
|-------------------------------|-------------------------|--|
|-------------------------------|-------------------------|--|
|-------------------------------|-------------------------|--|

		    +~~~~
|----------3-4--5--3?2h3p2----|------------------|-----------|
|----3-4-5-----------------3--|-2----------------|----5--5-5-|
|---4-----------------------4-|----2--1-2?-1~~~--|-----------|
|-----------------------------|-----5------------|-----------|
|-----------------------------|------------------|-----------|
|-----------------------------|------------------|-----------|


|-3-(2)h3p2---2---|--------------------------|---------------|
|-----------5---3-|-3-5-5-5--5-5-5~~~--------|---------------|
|-----------------|--------------------------|---------------|
|-----------------|--------------------------|----------4h5p4|
|-----------------|--------------------------|---------------|
|-----------------|--------------------------|---------------|


|--------|----------------------|--------------------|-------|
|--------|----------------------|--------------------|-------|
|--------|----------------------|--------------------|-------|
|--4h5p4-|-4--------------------|------V--V----------|-------|
|--------|-----5--5--5?5/7--7---|------5--7--8---5---|-------|
|--------|----------------------|--------------------|-------|

   +~~~~	      +~~~~
|---------------------------|------------------------------|
|---------------------------|------7----7--7---------------|
|---------------------------|---------7--7?--7~~-----------|
|-7h8p7p5-7---5?7h8p7p5-----|------------------------------|
|-----------------------7---|------------------------------|
|---------------------------|------------------------------|


Que te parecio? Calificalo con estrellas!!

Rating: 4.8/10 (138 votos)

Este fichero es trabajo propio de su transcriptor y representa su interpretación personal de la canción. El material contenido en esta página es para exclusivo uso privado, por lo que se prohibe su reproducción o retransmisión, así como su uso para fines comerciales.


Deja tus comentarios:
Letras de canciones | Musica Independiente