Enviado por: Mcrembil
Agrandar Letra
Reducir Letra
Imprimir

Acordes:
½ tono
| +0 |
½ tono
||
Volver










Reik, Sabes

 Aki tienen esta cancion q para mi ta 100% bn...
a mi me gusta el acorde G asi como lo puse
 ..a mi gusto suena mejor pero eso es a su criterio
 y ezo.. ojala les guste mi tab

Cn capo en el 1er traste...


 D*  G
-2---3--
-2---3--
-2---4--
-0---5--
-x---5--
-x---3--

INTRO:

e-----------------------0------------
B-----2-------------------3-2---0----
G-------4------2-0----2-----------2--
D---4--------0------0---------2------
A-2-------------------------0--------
E----------3-------------------------

e--------------------------------
B-----2-----------------0--------
G-------4------2-0--------0-2----
D---4--------0--------2----------
A-2-----------------0------------
E----------3---------------------



 D        D*        G                         D
Sabes no pido nada mas, que estar entre tus brazos
   D*           G                F#m   Em    Bm
y huir de todo mal que a todo he renunciado
       A 
por estar junto a ti.


 D       D*          G               D        D*         G
Sabes no dejo de pensar, estoy enamorado te quiero confesar
          F#m       Em  Bm         A                Bm
que soy solo un esclavo    que no sabe vivir...sin ti.

       G         D      A             Bm       G        D
Cuando llegaste tu te metiste en mi ser, encendiste la luz
       A        Em               F#m G
me llenaste de fe, tanto tiempo busque pero al fin te
  F#m Em         D         A                  Bm
encontre tan perfecta como te imagine, oo noo oo

Bm     G            D         A         Bm
Como aguja en un pajar, te busque sin cesar
       G            D         A         Em
como huella en el mar, tan dificil de hayar
              F#m G                  F#m Em
Tanto tiempo busque pero al fin te encontre,
        D        A 
tan perfecta aa aaa...como te imagine.

INTRO:

e-----------------------0------------
B-----2-------------------3-2---0----
G-------4------2-0----2-----------2--
D---4--------0------0---------2------
A-2-------------------------0--------
E----------3-------------------------

e--------------------------------
B-----2-----------------0--------
G-------4------2-0--------0-2----
D---4--------0--------2----------
A-2-----------------0------------
E----------3---------------------


 D         D*         G                           D
Sabes te quiero confesar que te encuentro irresistible
   D*          G            F#m    Em    Bm
no dejo de pensar que haria lo imposible
        A              Bm
por quedarme cerca de ti..


        G        D      A             Bm       G        D
Cuando llegaste tu te metiste en mi ser, encendiste la luz
       A        Em               F#m G
me llenaste de fe, tanto tiempo busque pero al fin te
  F#m Em         D         A                  Bm
encontre tan perfecta como te imagine, oo noo oo

Bm     G            D         A         Bm
Como aguja en un pajar, te busque sin cesar
       G            D         A         Em
como huella en el mar, tan dificil de hayar
              F#m G                  F#m Em
Tanto tiempo busque pero al fin te encontre,
        D        A 
tan perfecta aa aaa...como te imagine.


e--------------------------------
B-----2-----------------0--------
G-------4------2-0--------0-2----
D---4--------0--------2----------
A-2-----------------0------------
E----------3---------------------


 D       D*         G               A      D
Sabes no pido nada mas que estar entre tus brazoo oos.

 
Aviso: Este fichero es trabajo propio de su transcriptor y representa su interpretación personal de la canción. El material contenido en esta página es para exclusivo uso privado, por lo que se prohibe su reproducción o retransmisión, así como su uso para fines comerciales.
comentario del colaborador: http://lacuerda.net/tabs/r/reik/sabes-4.shtml

Califica esta canción


Comentarios en Facebook