Acordes y tablaturas para guitarra

Acordes y Tablaturas
Usuario: Password:

Buscar:
Acordes y Tablaturas >> Letra W >> Acordes de White Stripes >> seven nation army (2)
Tablatura de seven nation army, White Stripes

Seven nation army (2)

White Stripes






E|--------------------------------|
B|--------------------------------|
G|--------------------------------|
D|--------------------------------|
A|--7-7-10-7-5-3-2----------------|
E|--------------------------------|

E|-------------------------------------------|
B|-------------------------------------------|
G|-------------------------------------------|
D|-------------------------------------------|
A|--5-5-5-5-5-5-5--7-7-7-7-7-7-7-------------|
E|--3-3-3-3-3-3-3--5-5-5-5-5-5-5-------------|


Chorus 
E|--------------------------------------------------|
B|--------------------------------------------------|
G|--9-9-12-9-7-5-4--9-9-12-9-7-5/75-4--------------|
D|--9-9-12-9-7-5-4--9-9-12-9-7-5/75-4--------------|Play x2
A|--7-7-10-7-5-3-2--7-7-10-7-5-3/53-2--------------|
E|--------------------------------------------------|


Solo
E|-------------------------------------------------------------|
B|-------------------------------------------------------------|
G|--9-9-12-9--------12-11--9-9-12-9-----12b-12-11--------------|Play x2
D|------------12---------------------12------------------------|
A|-------------------------------------------------------------|
E|-------------------------------------------------------------|

Solo Continued
E|--12-12-15-12-----15-14--12-12-15-12-----15b-15--14----------------------|
B|---------------15--------------------15----------------------------------|
G|-------------------------------------------------------------------------|
D|-------------------------------------------------------------------------|
A|-------------------------------------------------------------------------|
E|-------------------------------------------------------------------------|
Solo
E|-12-12-15-12--------------------------|
B|-------------15-13b-13-12-------------|
G|--------------------------------------|
D|--------------------------------------|
A|--------------------------------------|
E|--------------------------------------|


Que te parecio? Calificalo con estrellas!!

Rating: 8.0/10 (251 votos)

Este fichero es trabajo propio de su transcriptor y representa su interpretación personal de la canción. El material contenido en esta página es para exclusivo uso privado, por lo que se prohibe su reproducción o retransmisión, así como su uso para fines comerciales.


Comentario de bunkerstroke
bueno aqui les dejo seven nation army
Deja tus comentarios:
Letras de canciones | Musica Independiente