Enviado por: xxblackxpinkxx
Agrandar Letra
Reducir Letra
Imprimir

Acordes:
½ tono
| +0 |
½ tono
||
Volver





Ac/dc, Back In Black

 'Back in black', AC/DC
_________________________
*Por: Sebas A.
*Msn y email cualquier duda o comentario: [email protected]
*buenos aires, argentina, 2007
-Escala: E
-Guitarrista: Angus Young & Malcolm Young
_________________________

RIFF PRINCIPAL:
e|-------2--2----------3-0------------
B|-------3--3--x-----------3-0--------
G|-------2--2--x-2-2v----------2b-0---
D|-2-x--[0][0]-x-2-2v-----------------
A|-2-x-----------0-0v-----------------
E|-0-x--------------------------------

e|----2-2-----------------------------
B|----3-3-----------------------------
G|----2-2-x--2-2v---------------------
D|2-x-0-0-x--2-2v--9-6--9-7--9-8--9-9-
A|2-x-----x--0-0v--9-6--9-7--9-8--9-9-
E|0-x--------------7-4--7-5--7-6--7-7-

Versos/Letra: 	
'BACK IN BLACK
I HIT THE SACK
IVE BEEN TOO LONG IM GLAD TO BE BACK
[I BET YOU KNOW IM...]
YES, IM LET LOOSE
FROM THE NOOSE
THATS KEPT ME HANGING ABOUT
IVE BEEN LOOKING AT THE SKY
CAUSE ITS GETTIN ME HIGH
FORGET THE HEARSE CAUSE I NEVER DIE
I GOT NINE LIVES
CATS EYES
ABUSIN EVERY ONE OF THEM AND RUNNING WILD'

__________________________________________________

ESTRIBILLO:

Riff 1:
e|------------
B|------------
G|--2-2-4-2-4-
D|--2-2-4-2-4-
A|x-0-2-2-2-2-
E|------------

Riff 2:
e|2-3--x-x-3--
B|2-2--2-0-2--
G|0-3--2-0-3--
D|0-0--2-0-x--
A|2----0-x----
E|3------x----

Riff Final:
e|2-3-3-3v--
B|2-2-2-2v--
G|0-3-3-3v--
D|0---------
A|2---------
E|3---------

CAUSE IM BACK
YES, IM BACK
WELL, IM BACK
YES, IM BACK
WELL, IM BACK, BACK
[WELL] IM BACK IN BLACK
YES, IM BACK IN BLACK
__________________________________________________

BACK IN THE BACK
OF A CADILLAC
NUMBER ONE WITH A BULLET, IM A POWER PACK
YES, IM IN A BANG
WITH A GANG
THEYVE GOT TO CATCH ME IF THEY WANT ME TO HANG
__________________________________________________

CAUSE IM BACK ON THE TRACK
AND IM BEATIN THE FLACK
NOBODYS GONNA GET ME ON ANOTHER RAP
SO LOOK AT ME NOW
IM JUST MAKIN MY PLAY
DONT TRY TO PUSH YOUR LUCK, JUST GET OUT OF MY WAY

__________________________________________________


WELL, IM BACK, YES IM BACK
WELL, IM BACK, YES IM BACK
WELL, IM BACK, BACK
WELL IM BACK IN BLACK
YES IM BACK IN BLACK

HOOO YEAH
OHH YEAH
YES I AM
OOOH YEAH, YEAH OH YEAH
BACK IN NOW
WELL IM BACK, IM BACK
BACK, IM BACK
BACK, IM BACK
BACK, IM BACK
BACK, IM BACK
BACK
BACK IN BLACK
YES IM BACK IN BLACK

OUT OF THE SIGHT 
Aviso: Este fichero es trabajo propio de su transcriptor y representa su interpretación personal de la canción. El material contenido en esta página es para exclusivo uso privado, por lo que se prohibe su reproducción o retransmisión, así como su uso para fines comerciales.

Califica esta canción


Comentarios en Facebook