Enviado por: adrian_soad
Agrandar Letra
Reducir Letra
Imprimir



System of a down, ROULETTE

ESTROFA
E--------------------------|------------------------------|
b--------------------------|------------------------------|
g---8----8-----12------7---|---10-----10------5-------7---|
d--------------------------|------------------------------|
a--------------------------|------------------------------|
e-8---8-8--8/11---11/6---6/|9----9-9----9---4----4/6----6/|




ESTRIBILLO
E----------------------------|----------------------------|
b----------------------------|----------------------------|
g----8-------8------4-----4--|----7-----7------5-----7----|
d----------------------------|----------------------------|
a----------------------------|----------------------------|
e--8---8--8----8--3---3-3---3|--6---6-6---6-4----4-6---6--|





SOLO(SOBRE BASE DE ESTRIBILLO)

E--8--8-10-11~---10-11-13~---10-11-13-11-10H11H10-8
b--------------------------------------------------
g--------------------------------------------------

--10-11-10-8-8~--------|
-----------------8--8~-|
-----------------------|


E---------------------------------------------------
b---8-9-11-9-8H9H8---6---8-9-8---6---6~---------8---
g--------------------------------------5--5~----9/10

-----------------------|
-----------------------|X2
-/-8-8/7-7/5-/-8-------|


H:HAMMER(MARTILLO)(EJ:SE MANTIENE EL DEDO ÍNDICE EN EL CASILLERO 8 Y SE GOLPEA CON EL DEDO MAYOR EL CASILLERO 9)

/:SLIDE(DESLIZAMIENTO)(SE PASA DE UN CASILLERO AL OTRO DESLIZANDO EL DEDO)

~:VIBRATO


CANCIÓN FÁCIL Y LINDA.PARA QUEDAR BIEN.

FUCK THE SYSTEM.¡VIVA LA REVOLUCIÓN!. 

SE LA DEDICO A CINTIA,CON MUCHO AMOR.

[email protected]
SI ALGUIEN ESTÁ CON GANAS DE TOCAR QUE SE
COMUNIQUE CONMIGO.  
Aviso: Este fichero es trabajo propio de su transcriptor y representa su interpretación personal de la canción. El material contenido en esta página es para exclusivo uso privado, por lo que se prohibe su reproducción o retransmisión, así como su uso para fines comerciales.

Califica esta canción


Comentarios en Facebook