Acordes y tablaturas para guitarra

Acordes y Tablaturas
Usuario: Password:

Buscar:
Acordes y Tablaturas >> Letra M >> Acordes de Maná >> Angel de amor (2)
Tablatura de Angel de amor, Maná

Angel de amor (2)

Maná






Que tal, aqui les paso la guitarra que hace el solo en
Angel de Amor, la otra lira por aqui la puse hace ratito tambien.
Lo mas importante es en el solo donde hay varias notas muertas.
Bueno me dejo de rollos y echenle una ojeada haber que les parece.

E||------|------|------|----------------------|-----------------------|
B||------|------|------|----------------------|-----------------------|
G||------|------|------|----------------11-11-|--11------7----7----9--|
D||------|------|------|----------------11-11-|--11------7----7----9--|
A||------|------|------|----------------9--9--|--9-------5----5----7--|
E||------|------|------|----------------------|-----------------------|



------------------------|-----------------------|-------------------------|
------------------------|-----------------------|-------------------------|
--------6----6----11-11-|--11------7----7----9--|-------------------------|
--------6----6----11-11-|--11------7----7----9--|----9--9--9--9--9--9--9--|
--------4----4----9--9--|--9-------5----5----7--|----7--7--7--7--7--7--7--|
------------------------|-----------------------|-------------------------|



-------------------------|--------------------|-------------------------|
-------------------------|--------------------|-------------------------|
--11----11------7/-9--9--|--------6------9----|--11----11------7/-9--9--|
--11----11------7/-9--9--|--------6------9----|--11----11------7/-9--9--|
--9-----9-------5/-7--7--|--------4------7----|--9-----9-------5/-7--7--|
-------------------------|--------------------|-------------------------|



---------------------|-------------------|--------------------|
---------------------|-------------------|--------------------|
--------6------------|-------------------|--------------------|
--------6------9/-7--|--4----------------|----------------4-4-|
--------4------9/-7--|--4----------------|----------------4-4-|
---------------7/-5--|--2----------------|----------------2-2-|


                                              ESTRIBILLO 1
                                              Truchas aqui con los Palm Mutings
                                              Las notas sencillas van con PM
                                              mientras que las dobles van normal,
                                              esto mismo aplica para los demas estri-
                                              billos.
--------------------|-----------------------|----------------------------|
--------------------|-----------------------|----------------------------|
--------------------|-----9-----------------|---------11--------6--------|
--4-----------------|----------------9------|-----11--11-----7--7--------|
--4--------------5--|--5-------7--7---------|--9----------5--------------|
--2-----------------|-----------------------|----------------------5--5--|



---------------------|----------------------------|---------------------|
---------------------|----------------------------|---------------------|
---------------------|---------11--------6--------|---------------------|
----7---------7------|-----11--11-----7--7--------|----7---------7------|
----7---------7------|--9----------5--------------|----7---------7------|
---------4-----------|----------------------5--5--|---------4-----------|



----------------------------|---------------------|----------------------------|
----------------------------|---------------------|----------------------------|
---------11--------6--------|---------------------|---------11--------6--------|
-----11--11-----7--7--------|----7---------7------|-----11--11-----7--7--------|
--9----------5--------------|----7---------7------|--9----------5--------------|
----------------------5--5--|---------4-----------|----------------------5--5--|



---------------------|----------------------------|---------------------|
---------------------|----------------------------|---------------------|
---------------------|---------11--------6--------|---------------------|
----7---------7------|-----11--11-----7--7--------|----7---------7------|
----7---------7------|--9----------5--------------|----7---------7------|
---------4-----------|----------------------5--5--|---------4-----------|



----------------------------|---------------------|----------------------------|
----------------------------|---------------------|----------------------------|
---------11--------6--------|---------------------|---------11--------6--------|
-----11--11-----7--7--------|----7---------7------|-----11--11-----7--7--------|
--9----------5--------------|----7---------7------|--9----------5--------------|
----------------------5--5--|---------4-----------|----------------------5--5--|



---------------------|----------------------------|-----------------------|
---------------------|----------------------------|-----------------------|
---------------------|---------11--------6--------|-------------------7-7-|
----7---------7------|-----11--11-----7--7--------|----7---------7----7-7-|
----7---------7------|--9----------5--------------|----7---------7----5-5-|
---------4-----------|----------------------5--5--|---------4-------------|


Puente al coro 1

-------------------|-------------------|-------------------|
-------------------|-------------------|-------------------|
--7----------------|----------------9--|--9----------------|
--7----------------|----------------9--|--9----------------|
--5----------------|----------------7--|--7----------------|
-------------------|-------------------|-------------------|

Coro 1

------------------------|-------------------------|--------------------|
------------------------|-------------------------|--------------------|
--6----6----6--6/-9--9--|--11----11------7/-9--9--|--------6------9----|
--6----6----6--6/-9--9--|--11----11------7/-9--9--|--------6------9----|
--4----4----4--4/-7--7--|--9-----9-------5/-7--7--|--------4------7----|
------------------------|-------------------------|--------------------|



-------------------------|--------------------|-------------------------|
-------------------------|--------------------|-------------------------|
--11----11------7/-9--9--|--------6------9----|--11----11------7/-9--9--|
--11----11------7/-9--9--|--------6------9----|--11----11------7/-9--9--|
--9-----9-------5/-7--7--|--------4------7----|--9-----9-------5/-7--7--|
-------------------------|--------------------|-------------------------|



--------------------|--------------------------|------------------|
--------------------|--------------------------|------------------|
--------6------9----|--11----11----7--6--7--9--|------------------|
--------6------9----|--11----11----7--6--7--9--|------------------|
--------4------7----|--9-----9-----5--4--5--7--|------------------|
--------------------|--------------------------|------------------|


ESTRIBILLO 2
Palm Mutings en notas solas, libres las dobles
----------------------------|---------------------|----------------------------|
----------------------------|---------------------|----------------------------|
---------11--------6--------|---------------------|---------11--------6--------|
-----11--11-----7--7--------|----7---------7------|-----11--11-----7--7--------|
--9----------5--------------|----7---------7------|--9----------5--------------|
----------------------5--5--|---------4-----------|----------------------5--5--|



---------------------|----------------------------|---------------------|
---------------------|----------------------------|---------------------|
---------------------|---------11--------6--------|---------------------|
----7---------7------|-----11--11-----7--7--------|----7---------7------|
----7---------7------|--9----------5--------------|----7---------7------|
---------4-----------|----------------------5--5--|---------4-----------|



----------------------------|---------------------|----------------------------|
----------------------------|---------------------|----------------------------|
---------11--------6--------|---------------------|---------11--------6--------|
-----11--11-----7--7--------|----7---------7------|-----11--11-----7--7--------|
--9----------5--------------|----7---------7------|--9----------5--------------|
----------------------5--5--|---------4-----------|----------------------5--5--|



---------------------|----------------------------|---------------------|
---------------------|----------------------------|---------------------|
---------------------|---------11--------6--------|---------------------|
----7---------7------|-----11--11-----7--7--------|----7---------7------|
----7---------7------|--9----------5--------------|----7---------7------|
---------4-----------|----------------------5--5--|---------4-----------|



----------------------------|---------------------|----------------------------|
----------------------------|---------------------|----------------------------|
---------11--------6--------|---------------------|---------11--------6--------|
-----11--11-----7--7--------|----7---------7------|-----11--11-----7--7--------|
--9----------5--------------|----7---------7------|--9----------5--------------|
----------------------5--5--|---------4-----------|----------------------5--5--|


Puente al coro 2
-----------------------|-------------------|-------------------|
-----------------------|-------------------|-------------------|
-------------------7-7-|--7----------------|----------------9--|
----7---------7----7-7-|--7----------------|----------------9--|
----7---------7----5-5-|--5----------------|----------------7--|
---------4-------------|-------------------|-------------------|


Coro 2
-------------------|------------------------|-------------------------|
-------------------|------------------------|-------------------------|
--9----------------|--6----6--6----6/-9--9--|--11----11------7/-9--9--|
--9----------------|--6----6--6----6/-9--9--|--11----11------7/-9--9--|
--7----------------|--4----4--4----4/-7--7--|--9-----9-------5/-7--7--|
-------------------|------------------------|-------------------------|



--------------------|-------------------------|--------------------|
--------------------|-------------------------|--------------------|
--------6------9----|--11----11------7/-9--9--|--------6------9----|
--------6------9----|--11----11------7/-9--9--|--------6------9----|
--------4------7----|--9-----9-------5/-7--7--|--------4------7----|
--------------------|-------------------------|--------------------|



-------------------------|--------------------|-------------------------|
-------------------------|--------------------|-------------------------|
--11----11------7/-9--9--|--------6------9----|--11----11------7/-9--9--|
--11----11------7/-9--9--|--------6------9----|--11----11------7/-9--9--|
--9-----9-------5/-7--7--|--------4------7----|--9-----9-------5/-7--7--|
-------------------------|--------------------|-------------------------|



--------------------|-------------------------|--------------------|
--------------------|-------------------------|--------------------|
--------6------9----|--11----11------7/-9--9--|--------6------9----|
--------6------9----|--11----11------7/-9--9--|--------6------9----|
--------4------7----|--9-----9-------5/-7--7--|--------4------7----|
--------------------|-------------------------|--------------------|



-------------------------|--------------------|-------------------------|
-------------------------|--------------------|-------------------------|
--11----11------7/-9--9--|--------6------9----|--11----11------7/-9--9--|
--11----11------7/-9--9--|--------6------9----|--11----11------7/-9--9--|
--9-----9-------5/-7--7--|--------4------7----|--9-----9-------5/-7--7--|
-------------------------|--------------------|-------------------------|



--------------------|-------------------------|---------------------|
--------------------|-------------------------|---------------------|
--------6------9----|--11----11------7/-9--9--|--------6------6--9--|
--------6------9----|--11----11------7/-9--9--|--------6------6--9--|
--------4------7----|--9-----9-------5/-7--7--|--------4------4--7--|
--------------------|-------------------------|---------------------|


SOLO
Las notas muertas las dan
en el mismo traste 7, y
combinenlo con PM para que            Este movimiento
suene mejor                           háganlo con los dedos
                                      índice y anular
----------------------------|---------------5h7----5~---|
----------------------------|---------------5h7----5~---|
----------------------------|---------------------------|
--7--x-7--x-7--7--x-7--x-7--|--7--x-7--x-7--------------|
--7--x-7--x-7--7--x-7--x-7--|--7--x-7--x-7--------------|
----------------------------|---------------------------|



----------------------------|-------------------------|
----------------------------|-------------------------|
----------------------------|-------------------------|
--7--x-7--x-7--7--x-7--x-7--|--7--x-7--x-7--9b---7~---|
--7--x-7--x-7--7--x-7--x-7--|--7--x-7--x-7------------|
----------------------------|-------------------------|



----------------------------|---------------5h7----5~---|
----------------------------|---------------5h7----5~---|
----------------------------|---------------------------|
--7--x-7--x-7--7--x-7--x-7--|--7--x-7--x-7--------------|
--7--x-7--x-7--7--x-7--x-7--|--7--x-7--x-7--------------|
----------------------------|---------------------------|



----------------------------|-------------------------|
----------------------------|-------------------------|
----------------------------|-------------------------|
--7--x-7--x-7--7--x-7--x-7--|--7--x-7--x-7--9b---7~---|
--7--x-7--x-7--7--x-7--x-7--|--7--x-7--x-7------------|
----------------------------|-------------------------|



--------------------------|-------------------------|-------------------------|
--------------9----10-----|--9----------------------|--------------9----10----|
--------11----------------|-------9---9h11----------|--------11---------------|
----6/11------------------|-------------------11----|----11-------------------|
--------------------------|-------------------------|-------------------------|
--------------------------|-------------------------|-------------------------|



--------------------------|------------------------------|
--12b-----12p10-12~-------|-------7----------------------|
--------------------------|---------9-6------------------|
--------------------------|--9b---------9-7-------9---7~-|
--------------------------|-----------------9-7-----9----|
--------------------------|---------------------9--------|



------------------------------|-12/14--x-14--x-14--x-14--x-14/12-12-12-|
------------------------------|-12/14--x-14--x-14--x-14--x-14/12-12-12-|
------------------------------|----------------------------------------|
----9-------------------------|----------------------------------------|
--------9-x--x-9p7---7-12p9---|----------------------------------------|
-------------------9----------|----------------------------------------|


                                      Outro
--12--x-12--x-12--12--x-12--x-12--|--14/--2--------------|--------------------|
--12--x-12--x-12--12--x-12--x-12--|--14/--2--------------|--------------------|
----------------------------------|----------------------|--------------------|
----------------------------------|---------4------------|----------------4-4-|
----------------------------------|---------4------------|----------------4-4-|
----------------------------------|---------2------------|----------------2-2-|



--------------------|-----------------------|-------------------|
--------------------|-----------------------|-------------------|
--------------------|-----9-----------------|-------------------|
--4-----------------|----------------9------|--4----------------|
--4--------------5--|--5-------7--7---------|--4----------------|
--2-----------------|-----------------------|--2----------------|



--------------------|--------------------|-----------------------|
--------------------|--------------------|-----------------------|
--------------------|--------------------|-----9-----------------|
----------------4-4-|--4-----------------|----------------9------|
----------------4-4-|--4--------------5--|--5-------7--7---------|
----------------2-2-|--2-----------------|-----------------------|


Ultimo Coro
-------------------------|---------------------------|
-------------------------|---------------------------|
--11------7-7-7---7---9--|--9---9---6--6---6---11-11-|
--11------7-7-7---7---9--|--9---9---6--6---6---11-11-|
--9-------5-5-5---5---7--|--7---7---4--4---4---9--9--|
-------------------------|---------------------------|



---------------------------|---------------------------|
---------------------------|---------------------------|
--11---11---7-7-7---7---9--|--9---9---6--6---6---11-11-|
--11---11---7-7-7---7---9--|--9---9---6--6---6---11-11-|
--9----9----5-5-5---5---7--|--7---7---4--4---4---9--9--|
---------------------------|---------------------------|



---------------------------|---------------------------|
---------------------------|---------------------------|
--11---11---7-7-7---7---9--|--9---9---6--6---6---11-11-|
--11---11---7-7-7---7---9--|--9---9---6--6---6---11-11-|
--9----9----5-5-5---5---7--|--7---7---4--4---4---9--9--|
---------------------------|---------------------------|



---------------------------|---------------------------|
---------------------------|---------------------------|
--11---11---7-7-7---7---9--|--9---9---6--6---6---11-11-|
--11---11---7-7-7---7---9--|--9---9---6--6---6---11-11-|
--9----9----5-5-5---5---7--|--7---7---4--4---4---9--9--|
---------------------------|---------------------------|



---------------------------|---------------------------|
---------------------------|---------------------------|
--11---11---7-7-7---7---9--|--9---9---6--6---6---11-11-|
--11---11---7-7-7---7---9--|--9---9---6--6---6---11-11-|
--9----9----5-5-5---5---7--|--7---7---4--4---4---9--9--|
---------------------------|---------------------------|



---------------------------|---------------------------|
---------------------------|---------------------------|
--11---11---7-7-7---7---9--|--9---9---6--6---6---11-11-|
--11---11---7-7-7---7---9--|--9---9---6--6---6---11-11-|
--9----9----5-5-5---5---7--|--7---7---4--4---4---9--9--|
---------------------------|---------------------------|



---------------------------|---------------------------|
---------------------------|---------------------------|
--11---11---7-7-7---7---9--|--9---9---6--6---6---11-11-|
--11---11---7-7-7---7---9--|--9---9---6--6---6---11-11-|
--9----9----5-5-5---5---7--|--7---7---4--4---4---9--9--|
---------------------------|---------------------------|



---------------------------|---------------------------|
---------------------------|---------------------------|
--11---11---7-7-7---7---9--|--9---9---6--6---6---11-11-|
--11---11---7-7-7---7---9--|--9---9---6--6---6---11-11-|
--9----9----5-5-5---5---7--|--7---7---4--4---4---9--9--|
---------------------------|---------------------------|



---------------------------|---------------------------|
---------------------------|---------------------------|
--11---11---7-7-7---7---9--|--9---9---6--6---6---11-11-|
--11---11---7-7-7---7---9--|--9---9---6--6---6---11-11-|
--9----9----5-5-5---5---7--|--7---7---4--4---4---9--9--|
---------------------------|---------------------------|



---------------------------|---------------------------|
---------------------------|---------------------------|
--11---11---7-7-7---7---9--|--9---9---6--6---6---11-11-|
--11---11---7-7-7---7---9--|--9---9---6--6---6---11-11-|
--9----9----5-5-5---5---7--|--7---7---4--4---4---9--9--|
---------------------------|---------------------------|



---------------------------|---------------------------|
---------------------------|---------------------------|
--11---11---7-7-7---7---9--|--9---9---6--6---6---11-11-|
--11---11---7-7-7---7---9--|--9---9---6--6---6---11-11-|
--9----9----5-5-5---5---7--|--7---7---4--4---4---9--9--|
---------------------------|---------------------------|



---------------------------|---------------------------|
---------------------------|---------------------------|
--11---11---7-7-7---7---9--|--9---9---6--6---6---11-11-|
--11---11---7-7-7---7---9--|--9---9---6--6---6---11-11-|
--9----9----5-5-5---5---7--|--7---7---4--4---4---9--9--|
---------------------------|---------------------------|



---------------------------|---------------------------|
---------------------------|---------------------------|
--11---11---7-7-7---7---9--|--9---9---6--6---6---11-11-|
--11---11---7-7-7---7---9--|--9---9---6--6---6---11-11-|
--9----9----5-5-5---5---7--|--7---7---4--4---4---9--9--|
---------------------------|---------------------------|



---------------------------|---------------------------|
---------------------------|---------------------------|
--11---11---7-7-7---7---9--|--9---9---6--6---6---11-11-|
--11---11---7-7-7---7---9--|--9---9---6--6---6---11-11-|
--9----9----5-5-5---5---7--|--7---7---4--4---4---9--9--|
---------------------------|---------------------------|



---------------------------|---------------------------|
---------------------------|---------------------------|
--11---11---7-7-7---7---9--|--9---9---6--6---6---11-11-|
--11---11---7-7-7---7---9--|--9---9---6--6---6---11-11-|
--9----9----5-5-5---5---7--|--7---7---4--4---4---9--9--|
---------------------------|---------------------------|



---------------------------|---------------------------|
---------------------------|---------------------------|
--11---11---7-7-7---7---9--|--9---9---6--6---6---11-11-|
--11---11---7-7-7---7---9--|--9---9---6--6---6---11-11-|
--9----9----5-5-5---5---7--|--7---7---4--4---4---9--9--|
---------------------------|---------------------------|



---------------------------|---------------------------|
---------------------------|---------------------------|
--11---11---7-7-7---7---9--|--9---9---6--6---6---11-11-|
--11---11---7-7-7---7---9--|--9---9---6--6---6---11-11-|
--9----9----5-5-5---5---7--|--7---7---4--4---4---9--9--|
---------------------------|---------------------------|



---------------------------|---------------------------|
---------------------------|---------------------------|
--11---11---7-7-7---7---9--|--9---9---6--6---6---11-11-|
--11---11---7-7-7---7---9--|--9---9---6--6---6---11-11-|
--9----9----5-5-5---5---7--|--7---7---4--4---4---9--9--|
---------------------------|---------------------------|

---------------------------|-----||
---------------------------|-----||
--11---11---7-7-7---7---9--|-9---||
--11---11---7-7-7---7---9--|-9---||
--9----9----5-5-5---5---7--|-7---||
---------------------------|-----||


OK, espero les haya latido, hay k machetear el solo porque
la pentatónica que se echa si esta mas o menos dificililla,
pero nada que la practica no pueda remediar :)
Saludas a la perrada de Chotlan.

Simbología:
H: Hammer On
P: Pull Off
x: nota muerta
~: vibrato
/: Slide
b: bending

Fuente original: LaCuerda
Colaborador original: Héctor Chávez Santos [[email protected]]

Que te parecio? Calificalo con estrellas!!

Rating: 4.9/10 (122 votos)

Este fichero es trabajo propio de su transcriptor y representa su interpretación personal de la canción. El material contenido en esta página es para exclusivo uso privado, por lo que se prohibe su reproducción o retransmisión, así como su uso para fines comerciales.


Deja tus comentarios:

Letras de Maná
Letras de canciones | Musica Independiente