Enviado por:
Anonimo

La Ley, Mentira (unplugged)

Este es una correcion de acordes e intro 
porque las anteriores no suenan bien
 
Ahi les va

E------------------------------------------------------
B------------------------------------------------------
G---------------------5-5---7b9-7-7--5-4-4-------------
D-----------------5h7-----------------------5--2-------
A-------------5h7--------------------------------------
E------------------------------------------------------

E------------------------------------------------------
B------------------------------------------------------
G------------------------------------------------------
D-----------------5h7--5-5-----------------------------
A-------------5h7----------5h7--5-3--5b7---------------
E------------------------------------------------------

Este es el intor mas que corregido es perfecto
Ahora en el concierto ponen un DoM que es medio
extraño algo asi como un SolM , Asi que lo llamaremos

 Do/Sol                                                          
E----0--------------------
B----1--------------------
G----0--------------------
D----2--------------------
A----3--------------------
E----3--------------------
 Ahora si la cancion

Am
Mentira mi vida 
    C/G 	 G
lo que se da y no se mira
Am
mentira fundida
    C/G		 G
por miel que evaporo mi piel.
Am
Mentira prohibida
    C/G		 G
debilidad que me domina
Am
mentira vivida
    C/G		 G
no quiero mas mentirte
  Em    G           D
mi amor   solamente encontre
     C		B7
el necio precio de volverme.

Am
Mentira vendida
     C/G          G     
moralidad que me intoxica 
Am   
mentira escondida
     C/G           G
flagelo que mi corazon
Am
no olvida mentira
     C/G           G
las tentaciones destructivas
Am
mentira medida
     C/G            G
no quiero mas mentirte 
 Em           G 
amor solamente me perdi
     C/G           B7
regreso para devolverte.


C/G D    E    C/G    D
mi corazón late por ti
     E
dentro de mi 
C/G D    E    C/G D
mi corazón nunca dejo 
    E
tu corazón

Am
Mentira servida
     C/G           G
el vino y pan de cada dia
Am
mentira atrevida
  C/G           G
bolero de mi corazon
Am
amarga saliva
  C/G           G 
sabor a culpa y agonia
Am
mentira divina
  C/G            G
no quiero mas mentirte

(SOLO) 
Em          G          
amor  solamente encontre
       D        C/G           B7
el necio precio de volverme a ver
C/G D    E     C/G   D       E
Mi corazon late por ti dentro de mi
(y siempre busca la verdad)
C/G D    E    C/G D       E
mi corazon nunca dejo tu corazon
C/G D    E    C/G D        E
mi corazon late por ti dentro de mi
(y busco siempre la verdad)
C/G D   	E
mi corazon nunca se fue.


Es te cancion es una de las que mas me gusta
y no hay acordes mas pefectos que estos
pero tomen en cuenta que estan un poco movidos los acordes
asi que mil disculpas
 
Y:    ¡¡¡¡¡¡GRACIAS TOTALES¡¡¡¡¡¡¡¡

Fuente original: LaCuerda
Colaborador original: Esteban Armas [[email protected]]
Aviso: Este fichero es trabajo propio de su transcriptor y representa su interpretación personal de la canción. El material contenido en esta página es para exclusivo uso privado, por lo que se prohibe su reproducción o retransmisión, así como su uso para fines comerciales.

Califica esta canción


Comentarios en Facebook