Enviado por:
Anonimo

La Ley, Mentira

e----------------------------------------
b----------------------------------------
g------------5---7/9-7--5-4-4------------
d-------5-6---------------------7---0/2--
a---6/7----------------------------------
e----------------------------------------

e----------------------------------------
b----------------------------------------
g------5-7-5-----------------------------
d-5/7-----------5/7----3-5-3-0-----------
a----------------------------------------
e----------------------------------------

Am
mentira mi vida,
C              G
lo que se da no se mira
Am
mentira fundida,
C                     G
con miel que evaporo mi piel
Am
mentira prohibida,
C                 G
devilidad que me domina
Am
mentira mi vida,
C                       G
no quiero mas mentirte amor
Am
solamente le encontre
C                  G
en el suplucio de volverte
Am
mentira vendida,
C                 G
modalidad que me intoxica 
Am
mentiras con vida,
C              G
flajelo de mi corazón
Am
olvida mentira,
C               G
las teneciones destuctivas
Am
mentira de vida,
C                       G
no quiero mas mentirte amor
AM           
solamente le pedi
C               G
regreso para devolverte 
C      A            C
mi corazón late por ti
         E
dentro de mi 
C       A         C 
mi corazón nunca dejo 
       E
tu corazón


A
mentira servida,
C                      G 
el vino y pan de cada día
A  
mentira atrevida,
C                G
bolero de mi corazón
A    
amarga saliva,
C                  G
sabor a culpa y agonia
A       
mentira divina,
C                       G
no quiero mas mentirte amor
A            
solamente le encontre 
C                      G
en el suplicio de volverte 


el solo es mas o menos asi




SOLO DE GUITARRA:
E-------------------8------8-----12------7----------7--
B------------------4------3-----10------8----------6---
G-----------------4------5-----9------------8----6-----
D---1---7----7---7----------5-------6------7----9-----9
A-6---6----5-----------------------------------------10
E--------5-----5------------------------------10---12--


E------------9------7----9---7------------8----------12
B-----------7--------------------------12----10----11--
G----------------6---------6---------7----------9------
D-----------4----------5----------10-------------------
A---7-8--9---------------------9------------------9----
E-9---------------------------9------------------------


E-------------------------------11-----12------13------
B------------------------------12-----12-----------15--
G----------------7---8-----9--------9-------7----------
D----------------7---8---8-----------------8-----------
A-----------9------------------------------------------
E--------10---11---------------------------------------


E-------------------------10-------10-----10H12---10P9-
B----------------------8----------9-------------9------
G--------------------10---------10------11-------------
D-------------------8------------------8----------10P9-
A--------10---10--------------11-----------------------
E-----------12--------------8--------------------------


E----------------------10--------10-------12------12---
B----------------------12--------12-------14------14---
G--------------------8---------8-------10------10------
D-------------------10--------10-------12------12------
A-----------------6---------6--------7-------7---------
E-----------------8---------8--------9-------9---------


E-----------------------7-------9----------------------
B-----------------------8------10---------6------------
G-------------------6---------6-------7-------7--------
D------------7-------------4-----------------------8~~-
A---------5-----5------------------6------7------5-----
E-------7---------5------------------------------------

Fuente original: LaCuerda
Colaborador original: daniel sanchez [[email protected]]
Aviso: Este fichero es trabajo propio de su transcriptor y representa su interpretación personal de la canción. El material contenido en esta página es para exclusivo uso privado, por lo que se prohibe su reproducción o retransmisión, así como su uso para fines comerciales.

Califica esta canción


Comentarios en Facebook