Enviado por:
Anonimo

La Ley, Mas Alla

Hola amigos, aquí estoy de nuevo mandando trancripciones de temas muy
buenos como son los de La Ley y en especial esta canción que es excelente:

  1:14    1:27 - 3:06  Coro:  C  F   G    C  Em F   G   C
|-------|------------|      |-----------------------------|
|-------|------------|      |-----------------------------|
|-------|-2-4-4/6-4--|      |-5--10--12---5--9--10--12--5-|
|-4h6-4-|------------|      |-5--10--12---5--9--10--12--5-|
|-------|------------|      |-3--8---10---3--7--8---10--3-|
|-------|------------|      |-----------------------------|

esto se hace durante los versos después del
primer coro:

  D    E
|-0---2-0-|
|---------|
|---------|
|---------|
|---------|
|---------|

Solo 3:43

|-7h8-7---------------------12-15-15/17-12-----------------------|
|-------8-5-8/10---8/10/8------------------13-15/13--10/8-10-13/8|
|----------------------------------------------------------------|
|----------------------------------------------------------------|
|----------------------------------------------------------------|
|----------------------------------------------------------------|

D                   E
Tengo ganas de gritar
D                    E
y mi boca está cerrada
D                       E
no tenia nada que ocultar
D                      E
y nadie me ocultaba nada

D                       E                                      
Hay algo más o algo menos
D                      E
me da igual lo mal o bueno
D                        E
dejar morir, dejar vivir 

Bm                                      G
Estoy hundiéndome en la oscuridad del mar
Bm                                      G
aquí no hay aire pero al fín podré llegar

C    F G
Mas allá
                          C                    
Espero un sol que me llevara
             Em
Sin temer volar
          F            G
donde un sueño es realidad

Mas allá
podré mentirle a mi corazón
sin tener razón 
Mas allá no miente la verdad

Tengo ganas de brillar 
y mi luz esta apagada
no tenia a nadie a quien culpar
y nadie culpabilizaba
      
Hay algo más o algo menos
me da igual si es mas o menos
dejar morir, dejar vivir 

Estoy hundiéndome en la oscuridad del mar
aquí no hay aire pero al fin podré llegar

Mas allá                
Espero un sol que me llevara
Sin temer volar
donde un sueño es realidad

Mas allá,
podré mentirle a mi corazón
sin tener razón 
Mas allá no miente la verdad
C                                 F
Hermanos del viento comparten la razón
C                                   F
en cada momento que el tiempo desdeñó
D            C     F   G
Viento desde el mas allá
despierta el sol que me llevara 
sin temer volar
donde un sueño es realidad

Mas allá
podré mentirle a mi corazón
sin tener razón 
Mas allá no miente la verdad

Un saludo a Pablo Miño y Mauricio Catalán.

Fuente original: LaCuerda
Colaborador original: Eduardo [[email protected]]
Aviso: Este fichero es trabajo propio de su transcriptor y representa su interpretación personal de la canción. El material contenido en esta página es para exclusivo uso privado, por lo que se prohibe su reproducción o retransmisión, así como su uso para fines comerciales.

Califica esta canción


Comentarios en Facebook