Enviado por:
Anonimo

La Ley, La Luna (unplugged)

Esta canción es genial, la saque pensando en Anayely 
Sayonara.Va por ti.




e------------0---------------0---------------0---------------0-----
B------------12--------------12--------------12--------------12----
G------------0---------------0---------------0---------------0-----
D--------9--------------9---------------11--------------11---------
A-----11-------------11--------------12--------------12------------
E--12-------------12---------------0---------------0---------------

e------------0------------------0---------------0----------------0-
B------------12-----------------12--------------12---------------12
G------------0------------------0---------------0----------------0-
D--------9-----------------9---------------11--------------11------
A-----11----------------11--------------12---------------12--------
E--12----------------12---------------0----------------0-----------
               la luna es incompleta, si el sol no está ahi


e------------0------------------0---------------0----------------0-
B------------12-----------------12--------------12---------------12
G------------0------------------0---------------0----------------0-
D--------9-----------------9---------------11--------------11------
A-----11----------------11--------------12---------------12--------
E--12----------------12---------------0----------------0-----------
               la luna no se queja,    siempre que el sol atienda su



e------------0------------------0---------------0----------------0-
B------------12-----------------12--------------12---------------12
G------------0------------------0---------------0----------------0-
D--------9-----------------9---------------11--------------11------
A-----11----------------11--------------12---------------12--------
E--12----------------12---------------0----------------0-----------
  amanecer, y su atardeceer,          su amanecer,   ummmmm

e------------0------------------0---------------0----------------0-
B------------12-----------------12--------------12---------------12
G------------0------------------0---------------0----------------0-
D--------9-----------------9---------------11--------------11------
A-----11----------------11--------------12---------------12--------
E--12----------------12---------------0----------------0-----------




e------------0------------------0---------------0----------------0-
B------------12-----------------12--------------12---------------12
G------------0------------------0---------------0----------------0-
D--------9-----------------9---------------11--------------11------
A-----11----------------11--------------12---------------12--------
E--12----------------12---------------0----------------0-----------
               la luna vive sola                  y tiene que enten


e--------------0------------------0--------------------0------------
B--------------12-----------------12-------------------12-----------
G--------------0------------------0--------------------0------------
D----------9-----------------9--------------------11--------------11
A-------11----------------11-------------------12---------------12--
E----12----------------12--------------------0----------------0-----
 der              que el sol que la ilumina                hace bri-

e---0------------------------0---------------------
B---12-----------------------12--------------------
G---0------------------------0---------------------
D-------------------------9------------------------
A----------------------11--------------------------
E-------------------12-----------------------------
 llar a otra luna              que despierta con él

e------------0------------------0---------------0----------------0--0-
B------------12-----------------12--------------12---------------12-12
G------------0------------------0---------------0----------------0--0-
D--------9-----------------9---------------11--------------11---------
A-----11----------------11--------------12---------------12-----------
E--12----------------12---------------0----------------0--------------
               al amanecer                         y al atardecer   

e---0--------
B---12-------
G---0--------
D---9--------
A---11-------
E---12-------

(Aplausos)

Fuente original: LaCuerda
Colaborador original: jorge alberto soto carrasco =============================== www.atame.org =============================== Este fichero es trabajo propio de su transcriptor y representa su interpretación personal de la canción. El usuario se compromete a utilizar este material únicamente para su aprendizaje y estudio personal. Para poder incluir este fichero en otro sitio Web, es necesario mencionar el origen del mismo [www.atame.org]
Aviso: Este fichero es trabajo propio de su transcriptor y representa su interpretación personal de la canción. El material contenido en esta página es para exclusivo uso privado, por lo que se prohibe su reproducción o retransmisión, así como su uso para fines comerciales.

Califica esta canción


Comentarios en Facebook