Enviado por:
Anonimo

La Ley, La Luna (unplugged)

Este tema se lo dedico a una personanita muy especial llamada Jessica.

Bueno esta rola está tal cual como la toca Beto Cuevas en el Mtv Unplugged. 
Vi por ahí que ninguna transcripción estaba del todo bien. No creo tener errores.

e------------0---------------0---------------0---------------0-----
B------------10--------------10--------------10--------------10----
G------------0---------------0---------------0---------------0-----	x2
D--------0--------------0---------------9---------------9----------
A-----9--------------9---------------10--------------10------------
E--10-------------10---------------0---------------0---------------

		La luna es incompleta, 	si el sol no está ahí
e------------0---------------0---------------0---------------0-----
B------------10--------------10--------------10--------------10----
G------------0---------------0---------------0---------------0-----
D--------0--------------0---------------9---------------9----------
A-----9--------------9---------------10--------------10------------
E--10-------------10---------------0---------------0---------------

		la luna no se queja, 	siempre que el sol atienda su
e------------0---------------0---------------0---------------0-----
B------------10--------------10--------------10--------------10----
G------------0---------------0---------------0---------------0-----
D--------0--------------0---------------9---------------9----------
A-----9--------------9---------------10--------------10------------
E--10-------------10---------------0---------------0---------------

amanecer, 			y su atardecer,
e------------0---------------0---------------0---------------0-----
B------------10--------------10--------------10--------------10----
G------------0---------------0---------------0---------------0-----
D--------0--------------0---------------9---------------9----------
A-----9--------------9---------------10--------------10------------
E--10-------------10---------------0---------------0---------------

su amanecer,   			  ummmmmmmmmmmmmmmm
e------------0---------------0---------------0---------------0-----
B------------10--------------10--------------10--------------10----
G------------0---------------0---------------0---------------0-----
D--------0--------------0---------------9---------------9----------
A-----9--------------9---------------10--------------10------------
E--10-------------10---------------0---------------0---------------

		La luna vive sola, 		  y tiene que entender
e------------0---------------0---------------0---------------0-----
B------------10--------------10--------------10--------------10----
G------------0---------------0---------------0---------------0-----
D--------0--------------0---------------9---------------9----------
A-----9--------------9---------------10--------------10------------
E--10-------------10---------------0---------------0---------------


		    que el sol que la ilumina,	también hace brillar
e------------0---------------0---------------0---------------0-----
B------------10--------------10--------------10--------------10----
G------------0---------------0---------------0---------------0-----
D--------0--------------0---------------9---------------9----------
A-----9--------------9---------------10--------------10------------
E--10-------------10---------------0---------------0---------------

a otra luna,			que despierta con él
e------------0---------------0---------------0---------------0-----
B------------10--------------10--------------10--------------10----
G------------0---------------0---------------0---------------0-----
D--------0--------------0---------------9---------------9----------
A-----9--------------9---------------10--------------10------------
E--10-------------10---------------0---------------0---------------

al amanecer                     y al atardecer
e------------0---------------0---------------0---------------0---0-
B------------10--------------10--------------10--------------10--10
G------------0---------------0---------------0---------------0---0-
D--------0--------------0---------------9---------------9----------
A-----9--------------9---------------10--------------10------------
E--10-------------10---------------0---------------0---------------


e---12--------
B----12-------
G------0------
D-------0-----
A--------9----
E---------10—

Comentarios o sugerencias a [email protected] o [email protected]

Fuente original: LaCuerda
Colaborador original: Charlie Nuñez [[email protected]]
Aviso: Este fichero es trabajo propio de su transcriptor y representa su interpretación personal de la canción. El material contenido en esta página es para exclusivo uso privado, por lo que se prohibe su reproducción o retransmisión, así como su uso para fines comerciales.

Califica esta canción


Comentarios en Facebook