Enviado por:
Anonimo

La Ley, La Luna (unplugged)

Esta cancion es de las que mas me gustan del nuevo disco
de La Ley
Dice asì:

Esto se repite durante casi toda la can ciòn

e-----------5-------------5----------------------5--------------5----
B-----------5-------------5----------------------5--------------5----
G------------------------------------------4------------------4------
D---4----4--------4----4----------------5-------------------5--------
A-----5-------------5------------------------------------------------
E-----------------------------------0--------------------0-----------
 
  Exepto donde dice:

     Y Su Atardecer, Su Amanecer, mj m m m m
e------------------12--
B------------------12--
G----------------------
D----------------------
A---------9------------
E------10-----10-------

Y el final dice asì:
e--12--------------
B----12------------
G-------0----------
D---------0--------
A------------9-----
E--------------10--

muchas grasias.

Fuente original: LaCuerda
Colaborador original: flagelo [[email protected]]
Aviso: Este fichero es trabajo propio de su transcriptor y representa su interpretación personal de la canción. El material contenido en esta página es para exclusivo uso privado, por lo que se prohibe su reproducción o retransmisión, así como su uso para fines comerciales.

Califica esta canción


Comentarios en Facebook