Enviado por:
Anonimo

La Ley, Krazyworld (unplugged)

Imprimir
Esta y todas las canciones del Mtv Unplugged suenan mucho mejor al 
ser tocadas por 2 o mas guitarras, unas que hagan el acompañamiento 
y otras los arpegios,punteos y solos.
|-------------------------------------------------------------------------|

  *--------------*
  |  h:hammer on |
  |  /:slide     |
  *--------------*  

 *Intro y versos

  0:00       Am                    C                      F
E|---0---0-0---0---0-0-----0---0-0---0---0-0-----1---1-1---1---1-1-|
B|---1---1-1---1---1-1-----1---1-1---1---1-1-----1---1-1---1---1-1-|
G|-2---2-----2---2-------0---0-----0---0---------------------------|
D|---------------------------------------------3---3-----3---3-----|
A|-----------------------------------------------------------------|
E|-----------------------------------------------------------------|
        Am        G
E|---0---0-0---3---3-3-|
B|---1---1-1---3---3-3-|
G|-2---2-----0---0-----|
D|---------------------|
A|---------------------|
E|---------------------|

  *Solo 2:37
E|------5h7-7-7-7h5-5----------------------7-7-7h5-5(x7)-5/12-12-12-12/10-|
B|-5(x5)--------------5--3-3-5-6-5-3-3-3-5--------------------------------|
G|------------------------------------------------------------------------|
D|------------------------------------------------------------------------|
A|------------------------------------------------------------------------|
E|------------------------------------------------------------------------|
(Los numeros que acompañan una x ( x5,x7 ) son el
numero de repeticiones de la nota que se le antepone)

E|-10-10-10-10/8-8-10/12-12--15-12-10-------------------------------------|
B|------------------------------------12h10-10-8h10-----------------------|
G|------------------------------------------------------------------------|
D|------------------------------------------------------------------------|
A|------------------------------------------------------------------------|
E|------------------------------------------------------------------------|


Am  C  F  Am  G

Am
Un Monde Qui Change De Peau
Et Tous Ces Langages
C
Qui Reprend Conscience 
De La Folie Du Pouvoir
    F
Un Monde Sans Frontière
         Am                G
Un Soleil Qui Grandit Un Krazyworld

Am
Une Nouvelle Zone Sans Loi
Et Sans Punition
C
Qui Défend Le Droit De La
            F
Simple Vie Mon Avis
                   Am              G
Est Que Le Ciel Descende Officiellement

Am                                 C
  Je Rêve De Vivre Un Krazyworld
F  
  Je Rêve Pouvoir Marcher
           Am                      G
  Tout Nu Dans La Grande Avenue
 Am                                C
  Je Rêve De Vivre Un Krazyworld
F
  Je Rêve Pouvoir Marcher
        Am                         G
  Tout Nu Dans La Grande Avenue

Am
Un Armement Fondu Pour Faire Une Statue
C
Qui Regarde Le Ciel Avec Une Larme De Sang
          F                                   Am
Une Fôret Qui Grandit / Un Homme En Synphonie
           G
Un Krazyworld

Am
La Haine De Tous Nos Coeurs Sen Vole
C                                                  F
La Haine Qui Brûle Toute Seule Sans Aucune Chance
                 Am                 G
De Trouver Un Logement Dans Nos Âmes

Am                                 C
Je Rêve De Vivre Un Krazyworld
F  
Je Rêve Pouvoir Marcher
           Am                      G
Tout Nu Dans La Grande Avenue
Am                                 C
Je Rêve De Vivre Un Krazyworld
F
Je Rêve Pouvoir Marcher
        Am                         G
Tout Nu Dans La Grande Avenue

(solo)
Am  C  F  Am  G

Am                                 C
Je Rêve De Vivre Un Krazyworld
F  
Je Rêve Pouvoir Marcher
           Am                      G
Tout Nu Dans La Grande Avenue
Am                                 C
Je Rêve De Vivre Un Krazyworld
F
Je Rêve Pouvoir Marcher
        Am                         G
Tout Nu Dans La Grande Avenue

(x  2)

Acordes:
-Am :002210
-C  :032010
-F  :133211
-G  :320033

|-------------------------------------------------------------------------|
Cualquier duda, comentario o sugerencia escribenos
a [email protected]

Fuente original: LaCuerda
Colaborador original: Jose Daniel & Oswaldo [[email protected]]
Aviso: Este fichero es trabajo propio de su transcriptor y representa su interpretación personal de la canción. El material contenido en esta página es para exclusivo uso privado, por lo que se prohibe su reproducción o retransmisión, así como su uso para fines comerciales.

Califica esta canción


Comentarios en Facebook