Enviado por:
Anonimo

La Ley, Intenta Amar (unplugged)

para que suene mejor toquenla con dos guitarras
INTRO:

0:03s

e|------------------------------------------------|
B|-3h5-5-5-5-6-8-5-3-5---10----8-5-3-5-3/5/3------|
G|------------------------------------------------|
D|------------------------------------------------|
A|------------------------------------------------|
E|------------------------------------------------|

1:11

e|------------------------------------------------|
B|-3h5-5-5-5-6-8-5-3-5----------------------------|
G|------------------------------------------------|
D|------------------------------------------------|
A|------------------------------------------------|
E|------------------------------------------------|

2:32

e|------------------------------------------------|
B|-3h5-5-5-5-6-8-5-3-5---10----8-5-3-5-3/5/3------|
G|------------------------------------------------|
D|------------------------------------------------|
A|------------------------------------------------|
E|------------------------------------------------|

4:03

e|--0-0-0-0-0-0-0-0-0-0-0-0-0-0-0-0-0-0-0-0-------|
B|--3-3-3-3-3-3-3/2-2-2-2-2/0-0-0/2-2-2-2-2-------|
G|------------------------------------------------|
D|------------------------------------------------|
A|------------------------------------------------|
E|------------------------------------------------|

4:16

e|--10-10-10-10-10-10-10/9-9-9-9-9/7-7-7----------|
B|--10-10-10-10-10-10-10/9-9-9-9-9/8-8-8----------|
G|------------------------------------------------|
D|------------------------------------------------|
A|------------------------------------------------|
E|------------------------------------------------|

acordes
INTRO:

LAM- FAM7   X2

ESTROFAI:
LAM              FAM7
   Las Penas Se Van
LAM              FAM7
   Y Vuelven A Estar
LAM              FAM7
   Ancladas A Un Mar
LAM              FAM7
   Que Suele Callar

PRE-CORO:

      DOM           SOLM
Tus Lágrimas, Tu Devoción
     REm               LAm
Un Pez Que Vence Todo Su Temor
    DOM          SOLM
Para Vivir, Para Existir
    REm               LAm
Y Descubrirse Cada Día Más

1:11

ESTROFAII:

LAM           FAM7
    Intenta Amar
LAM                FAM7
    Un Trozo De Ese Mar
LAM                FAM7
     Inunda Mi Paz

PRE-CORO:

       DOM           SOLM
La Inmensidad De Esta Verdad
       REm              LAm
Ni Impedirá Que Pueda Nadar
     DOM           SOLM
Dentro De Ti Para Sentir
    REm               LAm  LAM
Y Descubrirte Cada Día Más

CORO:

 MIM      MIM7
Pa Pa Pa Pa
LAM            MIM
Necesito Tu Calor
MIM      MIM7
Pa Pa Pa Pa
LAM            MIM    LAM
Necesito Tu Amor

2:32

ESTROFAIII:

LAM           FAM7
   El Tiempo Se Va
LAM            FAM7
   Muy Lejos Atrás

PRE-CORO:
            DOM          SOLM
Y Ahora Estoy Y También Soy
      REm                 LAm
El Hombre Que Busca Una Razón

    DOM         SOLM
Para Vivir, Para Decir
     REm                 LAm LAM
Que Hoy Te Quiero Cada Día Más

REPETIR EL CORO 2 VECES

AHORA SE REPITEN LAS NOTAS DEL CORO 2 VECES MAS PERO CON UN RITMO
MAS RAPIDO.
LA NOTA DEL FINAL ES UN MIM DE ABAJO HACIA ARRIBA.

ESPERO QUE LES GUSTE,AHHH ESTA CANCION VA DEDICADA COMO SIEMPRE A
LA DUEÑA DE MI CORAZON LIZ ROSMERY JAVIER LOPEZ DE LA ESCUELA DE FISICA
DE LA UNSA-AREQUIPÀ-PERU.PASENLE LA LOZ A TODO EL MUNDO...

Fuente original: LaCuerda
Colaborador original: mauro gonzales postigo [[email protected]]
Aviso: Este fichero es trabajo propio de su transcriptor y representa su interpretación personal de la canción. El material contenido en esta página es para exclusivo uso privado, por lo que se prohibe su reproducción o retransmisión, así como su uso para fines comerciales.

Califica esta canción


Comentarios en Facebook