Enviado por:
Anonimo

La Ley, Hombre (unplugged)

Imprimir
Esta y todas las canciones del Mtv Unplugged suenan mucho mejor al 
ser tocadas por 2 o mas guitarras, unas que hagan el acompañamiento 
y otras los arpegios,punteos y solos.
|-------------------------------------------------------------------------|
  *---------------*
  |  x:mute       |
  |  /:slide      |
  |  ~:vibrato    |
  |  h:hammer on  |
  |  p:pull of    |
  |  ^:full       |
  *---------------*  

  *Intro: 0:03
E|--------------------------------------------------------------------------------5---|
B|-----------------------------------8-----8-----8-----------8------------------------|
G|--------------7h9^-7---------7-7h9---7h9---7h9---7h9-7-7h9---7h9-7------------------|
D|-----5-7-------------10-7-10---------------------------------------7----------7-----|
A|-5h7-----5h7---------------------------------------------------------10-10-10-----0-|
E|------------------------------------------------------------------------------------|

  0:48
E|-0-0-x-0-x-0-x-0-x-0-0-0-0---0-0--------------5---|
B|-1-1-x-1-x-1-x-1-x-1-1-1-0h1-1-1------------------|
G|-2-2-x-2-x-2-x-2-x-2-2-2-2---2-2------------------|
D|--------------------------------------5---5-7-----|
A|----------------------------------5h7---7-------0-|
E|--------------------------------------------------|

  1:51
E|-----------------------------------------------------------------|
B|-----------------------------------------------------------------|
G|-6/7h9-6/7h9-6/7h9-6/7h9-6/7h9-9-9-6/7h9-6/7h9-6/7h9-6/7h9-6/7h9-|
D|-----------------------------------------------------------------|
A|-----------------------------------------------------------------|
E|-----------------------------------------------------------------|

  *Solo: 3:42
E|---------------------------------------------8--11/8-8------------------------------------|
B|-------------8---------------------x-10-7-10-----------10-8-------------------------------|
G|-------5-5/7----5h7-5-5h7-5h7-5h7--x-9----------------------7p5-5-7-----------------------|
D|-5h7-7--------------------------------------------------------------7-5-5h7---5-----------|
A|----------------------------------------------------------------------------5---5/3-3-----|
E|--------------------------------------------------------------------------------------3-5-|

 Am
 Hombre que caminas
 en la ruta de la grandeza,
 vas cojeando como animal
 date vuelta y ve
 que escupiste donde decía
 no muerdas la mano que te da de comer 
 D  G             
     a donde vas? 

 Am
 Descubriste el fuego
 para facilitar tu vida
 y ahora lo usas para encabezar,
 marchas de guerra,
 abuso de poder demente
 tu necia manera de jugar 
 D  G             
     a donde vas?

 F                  C                        G       Bm
  hacia un sin control en este mundo por tu mal...aaauuuuu
 F                     C                         G       Bm
  hacia el fin de conquistas perpetradas por el mar...aaauuuuu   
 
 Am
 Beatificas y no te ocupas de la miseria
 que elimina hermanos día a día, día a día...
 tantos satélites en la era comunicacional
 aún no logran acercarnos totalmente bien 
 D  G              
     a donde vamos?  

 F                  C                       G        Bm
  hacia un sin control en este mundo por tu mal...aaauuuuu
 F                     C                         G       Bm
  hacia el fin de conquistas perpetradas por el mar...aaauuuuu
 F                   C                         G       Bm
  hacia un gran temblor en las entrañas de tu mar...aaauuuuu  

 D  A

 F                  C                          G       Bm
  Si es verdad que nada es imposible no habrá mal...aaauuuuu
 F                      C                         G       Bm
  fuera oscuridad que mancha la inmensidad de tu mar...aaauuuuu 

 D  A

 Am

Acordes:
-A : x02220
-Am: x02210
-D : xx0232
-F : 133211
-C : x32010
-G : 320033
-Bm: 224432

|-------------------------------------------------------------------------|
Cualquier duda, comentario o sugerencia escribenos
a [email protected]

Fuente original: LaCuerda
Colaborador original: Jose Daniel & Oswaldo [[email protected]]
Aviso: Este fichero es trabajo propio de su transcriptor y representa su interpretación personal de la canción. El material contenido en esta página es para exclusivo uso privado, por lo que se prohibe su reproducción o retransmisión, así como su uso para fines comerciales.

Califica esta canción


Comentarios en Facebook