Enviado por:
Anonimo

La Ley, Histeria

Imprimir
Hola a todos aquí les dejo el solo de esta super canción.
Histeria.
Les recomiendo que para el acompañamiento utilicen “A”
como la pongo a continuación:

E                                                     A

 e  ---0----------------                         e  ---0---------------
 b  ---0----------------                         b  ---0---------------
 g  ------1-------------                         g  ----6--------------
 D  -----------2--------                         D  ----------7--------
 A  --------2-----------                         A  -------7-----------
 E  -x------------------                         E  -x-----------------

/ : slide
v : vibrato
Po: pull on


* Solo *



3:06                                                 3:11

E                                    A

e---------------------------------------------------------------
b---------------------------------------------------------------
g----9/ 16v------18-16--18-16--------14---13---------9v---------
D---------------------------------------------------------------
A---------------------------------------------------------------
E---------------------------------------------------------------

3:12                                                                      3:20

E                                            A

e-------------------------------------------------------17-17---19---21---22-po----
b--------------------------------------------22--22--------------------------------
g----9/ 16v------16/-21v------21-21------------------------------------------------
D----------------------------------------------------------------------------------
A----------------------------------------------------------------------------------
E----------------------------------------------------------------------------------

-Hasta siempre a través de la música -

Saludos: a Tanyita,a mi banda,oscarito,Paola y a todos los que oyen a la mejor
banda del Habla Hispana:  ¡¡LA LEY¡¡

* Ro Cuevas *

Fuente original: LaCuerda
Colaborador original: * Ro Cuevas * [[email protected]]
Aviso: Este fichero es trabajo propio de su transcriptor y representa su interpretación personal de la canción. El material contenido en esta página es para exclusivo uso privado, por lo que se prohibe su reproducción o retransmisión, así como su uso para fines comerciales.

Califica esta canción


Comentarios en Facebook