Enviado por:
Anonimo

La Ley, Guerrillero

Imprimir
En esta canción en los versos y el solo se escucha 
guitarra acústica, y en el coro  e interlude se
escucha guitarra eléctrica.

Intro: Bm F#m D F#m 
       Bm F#m D F#m  

Verso 1:
    Bm         F#m          D            F#m
  Nací en el ayer, de una guerra sin piedad
     Bm        F#m           D           F#m
  Luché sin parar, al que oprimió mi verdad
    Bm      F#m         D           F#m        Bm Bm Bm....
  Juré defender, los latidos de nuestra humanidad


Parte 1(riff 1):esto es lo MAS APROXIMADO a lo 
que la ley hace. Se toca esto junto con el coro, pero  
se toca unas cuantas veces antes del coro, así que 
oigan bien la canción para que tomen bien los tiempos
                                   
e|----------------------|   
B|----------------------|   
G|---4---4-/-6---x---x--|   esto la llamaremos AA
D|--(4)-(4)/(6)-(x)-(x)-|   
A|---2---2-/-4---x---x--|    
E|----------------------|     
   
e|----------------------|
B|----------------------|
G|---4---4-/-3---x---x--|   esta la llamaremos BB
D|--(4)-(4)/(3)-(x)-(x)-|
A|---2---2-/-1---x---x--|
E|----------------------|

En este riff dando los números en paréntesis o no dandolos se 
oye bien, hagan lo que más le  guste y usen un distortion de  
su agrado. Este tienen que hacerlo bien para que les suene osea,
que se haga rápido. 

antes del primer coro se toca AA X4 y BB X4

                       
Coro:
    (AA)          (BB)
    C#m            B               F#
         Ferviente   no luches más,  no sufras más

    (AA)        (BB) 
    C#m           B          F#   
         Tu mente  disparará,  estallará

    (AA)         (BB)
    C#m           B             F#                       
         Creyente  de tu verdad,  de tu verdad            

(inmediatamente termina el coro entra acordes de versos
para el solo)

Solo:(va más o menos así)
e|------------------------------------------------------|
B|--5/7-7-7-7-7-(7)-8-----------------------------------|
G|--------------------7-6-6h7/6-6-6-4-4-2-2-4-4-2-2-4-4-|
D|------------------------------------------------------|
A|------------------------------------------------------|
E|------------------------------------------------------|

e|-------------7/9----10---12--|
B|-----------7--/9--9----9-----|
G|-2h4/6-6---------------------|
D|-----------------------------|
A|-----------------------------|
E|-----------------------------|

               (Bm  F#m  D  F#m)
 
repito oigan la canción para que tomen bien los tiempos 
y sepan donde entra el solo exactamente
 
Este verso es igual al anterior y el coro solo varía 
al final, la diferencia que hay ahí esta escrita..

Verso 2:
 Sume en mi corazón, la sangre que derramé
 Sentí que mi nación, en instantes olvidó
 El costo de luchar, contra hijos de esta triste humanidad

Coro: antes de entrar a cantar se toca AA X3
    
    Ferviente no luches más, no sufras más
    Tu mente disparará, estallará 
    La gente  escapará, escapará

(AA)        (BB)
C#m          B             F#
    Creyente  de la verdad,  de tu verdad

(BB)                   
F#m              F#m             C#m   B   C#m   B   C#m    
    De tu verdad,   de tu verdad aaa  aaa  aaa  aaa aouuu


interlude(Bm):

Parte A:  
e|-------0--||----------||-----------|  
B|----3-----||---3---2--||----2---2--|  
G|--4---4---||-4---4----||--3---3----|   
D|----------||----------||-----------|  
A|----------||----------||-----------|
E|----------||----------||-----------|

Parte B:
e|------3-x-x-3-3-x-5-3----|  tienen que oir bien la canción para 
B|--x-3-3-x-x-3-3-x-3-3----|  que sepan cuantas veces se repite o 
G|--x-4-4-x-x-4-4-x-4-4----|  cuantos tiempos dura la parte A, por
D|--x-4--(x-x)-------------|  otra parte la parte B es solo la clave
A|-------------------------|  de lo que la ley hace, así que impro-
E|-------------------------|  visen un poco en parte B

este interlude HASTA DONDE CREO se acompaña del tono
Bm solamente
    
    Ferviente no luches más, no sufras más
    Tu mente disparará, disparará 
    La gente  escapará, escapará
    Ausente por tu verdad, por tu verdad
    por tu verdad, por tu verdad aaa aaa aaa aaa aoouuu

Este coro es igual al segundo y termina en C#m y NO se 
tocan ninguno de los riff 1(AA y BB) antes de entrar 
al coro, osea el coro entra inmediatamente despues del 
interlude y si se tocan AA y BB junto con el coro

Aquí esta, creo que hay algunos errores.
cualquier opinión envíen un email
[email protected]

Fuente original: LaCuerda
Colaborador original: Fausto Disla [[email protected]]
Aviso: Este fichero es trabajo propio de su transcriptor y representa su interpretación personal de la canción. El material contenido en esta página es para exclusivo uso privado, por lo que se prohibe su reproducción o retransmisión, así como su uso para fines comerciales.

Califica esta canción


Comentarios en Facebook