Enviado por:
Anonimo

La Ley, Fuera De Mi (unplugged)

Imprimir
Esta y todas las canciones del Mtv Unplugged suenan mucho mejor al 
ser tocadas por 2 o mas guitarras, unas que hagan el acompañamiento 
y otras los arpegios,punteos y solos.
|-------------------------------------------------------------------------|  
  *----------------*
  |  p:pull off    |
  |  h:hammer on   |
  |  ^:full        |
  |  /:slide       |
  |  ~:vibrato     |
  *----------------*

  *0:13 (Esta parte se puede tocar con dos guitarras para que suene mejor)
E|-------------|
B|-------------|
G|---6-9-6-6h9-|
D|-9-6-9-6-6h9-|
A|-9-----------|
E|-------------|
 |             |
E|-------------|
B|---2-5-2-2h5-|
G|-4-----------|

  *Coro: 1:11
E|-2--2-0---2-0---2-0---2-0----2--2-0---2-0---2-0---2-0---|
B|--------0-----0-----0-----0---------0-----0-----0-----0-|
G|--------------------------------------------------------|
D|--------------------------------------------------------|
A|--------------------------------------------------------|
E|--------------------------------------------------------|

E|-2--2-0---2-0---2-0---2-0-------------------------------|
B|--------0-----0-----0-----0--4--4-2-0-4-2-0-4-2-0-4-2-0-|
G|--------------------------------------------------------|
D|--------------------------------------------------------|
A|--------------------------------------------------------|
E|--------------------------------------------------------|

  *Solo: 2:55 / <*>(4:19)
E|----------------------------------------------------------------------------|
B|--------------------------------------------5-------------------------------|
G|---------------------8h9^-8/4-4-4h6-4---4-----------------------------------|
D|-9~~-9-9----9-9h11-9------------------6---6-----4-----2-----2---------6-7-6-|
A|---------11-----------------------------------6---2h4---2h4-------7---------|
E|--------------------------------------------------------------7h9---9-------|
  *3:22
E|----------------------|
B|----------------------|
G|-7-9-7/6-6/4-4/2-2-4~-|
D|----------------------|
A|----------------------|
E|----------------------|
  *Outro: 4:33
E|----------------------------------------------------------------------0-|
B|-5h7-7/9-7/9-7--7/9-------------------------------------------------0---|
G|---------7/9-7-(7/9)-4-4h6-6-6p4--4---------------8---------------1-----|
D|---------------------------------6--6-6-0-----9-----9---0-------2-------|
A|--------------------------------------------9---9-----9-------2---------|
E|------------------------------------------7-----------------0-----------|
(las notas que estan encerradas en el parentesis no se tocan pero 
se dejan pisadas para que el Slide( / ) se escuche solo un poco) 

*Intro: E - A - E - B  /  E - A - E - A
     
E    
Lentamente desvanezco y
A    
uso al viento de pretexto
E                          A
mi cabeza rueda en la escalera.
E                   A                         
Las miradas cinicas barren los detalles que
E                       A                     
  al final del dia moriran y digo...
E             A      C#m       B
todo se me escapa un paso mas alla

                E           A
       Fuera de mi en el umbral del mundo
       C#m                 B            
       sin necesidad de entrar,
                E                A
       Fuera de mi perdido en otro rumbo
       C#m                 B
       sin necesidad de volver


E                          A
me encontre en un balcon
                       E
con un angel celestial
                      A
que me devolvio mi cabeza ah ah,
E
me explicó como encontrar
A                          E
cuando se desprende el alma
                       A
conectandola a mi corazón y digo...
E           A        C#m        B
todo se me escapa un paso mas alla

                E           A
       Fuera de mi en el umbral del mundo
       C#m                B            
       sin necesidad de entrar,
         E                      A
       Fuera de mi perdido en otro rumbo
       C#m                B
       sin necesidad de volver
                  A              B
       solte los lazos que me atan
                E      A     E     B
       fuera de mi       


  E
Cuando el dia se agotó
A                       E
senti que era tiempo de
                       B
regresarle pasos al camino,

E
Pregunte de vuelta si
A                      E                
todavia existia el amor
                        A
nadie se digno a contestar

                 E           A
       Fuera de mi en el umbral del mundo
       C#m                B            
       sin necesidad de entrar,
                E              A
       Fuera de mi perdido en otro rumbo
       C#m                B
       sin necesidad de volver
                  A            B
       solte los lazos que me atan
                    A          B
       dejando huellas que pisan
                E      A     E     B
       fuera de mi...

<*>(Casi al terminar la cancion, antes del Outro(Final), exactamente a los 
4:19 seg. se puede repetir el solo para que se enlaze con el final) 


Acordes:
- E : 022100
- A : 002220
- B : 224442
-C#m: 446654

|-------------------------------------------------------------------------|
Cualquier duda, comentario o sugerencia escribenos
a [email protected]

Fuente original: LaCuerda
Colaborador original: Jose Daniel & Oswaldo [[email protected]]
Aviso: Este fichero es trabajo propio de su transcriptor y representa su interpretación personal de la canción. El material contenido en esta página es para exclusivo uso privado, por lo que se prohibe su reproducción o retransmisión, así como su uso para fines comerciales.

Califica esta canción


Comentarios en Facebook