Enviado por:
Anonimo

La Ley, Fuera De Mi

Intro
G---------------------------|
D---------------------------|
A-----------------0--0-0-0--|
E---0/7-0--0-0-0------------|


G---------------------------|
D---------------------------|
A---------------------------|
E-0--0-0-0--4-5-5-5-5-------|


lentamente...
G-------------------------------|
D-------------------------------|
A-----------0--0-0-0------------|
E-0--0-0-0------------0--0-0-0--|


G-------------|
D-------------|
A-------------|X2 
E--4-5--5-5-5-|

y digo...Todo se me escapa...
G----------------------------------|
D----------------------------------|
A------------------------4-4-4--4--|
E-0--0-0-0--4-5--5-5-5--5----------|

G--------------------------|
D--------------------------|
A-2--2-2-2--2-----0-2------|
E---------------------4--0-|

fuera de mi..
G---------------------------------|
D---------------------------------|
A-----------------------------2-4-|
E-(0)--0-0-0--0-4-5--5-5-5--5-----|

G-------------------------------|
D-------------------------------|X2
A--0-4-4--0-4--2--0-2-2--2-4----|
E-----------------------------0-|

me encontre
G---------------------------------|
D---------------------------------|
A---------------------------------|
E-0--0-0-0--4-5--5-5-5--5/7-0-----|

G-------------------|
D-------------------|
A-------------------|X2
E-0-0-0--4-5--5-5-5-|

y digo...Todo se me escapa...
G----------------------------------|
D----------------------------------|
A------------------------4-4-4--4--|
E-0--0-0-0--4-5--5-5-5--5----------|

G--------------------------|
D--------------------------|
A-2--2-2-2--2-----0-2------|
E---------------------4--0-|

fuera de mi..
G---------------------------------|
D---------------------------------|
A-----------------------------2-4-|
E-(0)--0-0-0--0-4-5--5-5-5--5-----|

G-------------------------------|
D-------------------------------|X2
A--0-4-4--0-4--2--0-2-2--2-4----|
E-----------------------------0-|

solte los lazos...
G---------------------------------|
D---------------------------------|
A----0--0----0-0--2--0-2-2---0----|
E--4--4----0---------------4---4-0|

Solo
G---------------------------------|
D---------------------------------|
A---------------------------------|
E-0--0-0-0--4-5--5-5-5--5/7-5-0---|

G---------------------|
D---------------------|
A---------------------|
E-0-0-0--4-5--5-5-5~~-|



Guitarra


pregunte de vuela...
G---------------------------------|
D---------------------------------|
A---------------------------------|
E-0/7-0--0-0-0--4-5--5-5-5--7-----|


G---------------------------------|
D---------------------------------|
A-----------------------0-2-------|
E-0-0-0-0---4-5--5-5-5------4-0---|

fuera de mi..
G---------------------------------|
D---------------------------------|
A-----------------------------2-4-|
E-(0)--0-0-0--0-4-5--5-5-5--5-----|

G---------------------------------|
D---------------------------------|
A--4-4-4--0-4--2--0*2*0*2--2-4----|
E---------------------------------|

solte los lazos...
G------------------------------|
D------------------------------|
A-0--0-0-0--0/4--2--2-2-2--2---|
E----------------------------4-|

dejando huellas..
G---------------------------------|
D-----------1---------------------|
A-0--0-0-0----4-2--0*2*0*2--2-4---|
E-------------------------------0-|

miiiii
G---------------------------------|
D---------------------------------|
A---------------0-0-0--2-4--0-4-4-|
E-0--0-0-0--4-5-------------------|

G------------------------------|
D------------------------------|
A-0-4---2--2-2-2--2/4--0/2-----|
E---------------------------0--|

final
G--------------------------------|
D--------------------------------|
A--------------------------------|
E--0-0-0--0-4-5--5-6-7---9--9~~~-|

dudas comentarios o anecdotas chuscas
a mi correo ya saben [email protected]

si van a usar esta tab para algun lugar avisenme
no sean ****gandallas***** y si buscan un 
guitarrista ando en busca de banda =)

Fuente original: LaCuerda
Colaborador original: Julio Durán "Gambito" [[email protected]]
Aviso: Este fichero es trabajo propio de su transcriptor y representa su interpretación personal de la canción. El material contenido en esta página es para exclusivo uso privado, por lo que se prohibe su reproducción o retransmisión, así como su uso para fines comerciales.

Califica esta canción


Comentarios en Facebook