Enviado por:
Anonimo

La Ley, Fuera De Mi

Francisco Barros <[email protected]>
Subject: l/la_ley/fuera_de_mi.tab

song: Fuera de mi
Artist: La Ley
Album: Uno

tabbed by Francisco Barros ([email protected])
comments and questions are welcomed

Note: There are at least 2 guitars.
1 acoustic, 2 electric
Elec. guitar plays intro and verse with reverb tremolo and chorus effects.
when it plays solos, use clean guitar. (when you play last solo use slide)

Intro:
======

Acoustic guitar: play intro twice.
|--------------------------|---------------------------|
|--------------------------|---------------------------|
|--------------------------|---------------------------|
|--------------------------|---------------------------|
|-9h11-11-11-11-11-11-11-11|-11/12-12-12-12-12-12-12-12|
|-0----0--0--0--0--0--0--0-|-0--0--0--0--0--0--0--0--0-|

|--------------------------|---------------------------|
|--------------------------|---------------------------|
|--------------------------|---------------------------|
|--------------------------|---------------------------|
|-9h11-11-11-11-11-11-11-11|-11/9--9--9--9--9--9--9--9-|
|-0----0--0--0--0--0--0--0-|-0--0--0--0--0--0--0--0--0-|
*Electric guitar*
|--------------------------|---------------------------|
|--------------------------|---------------------------|
|--------------------------|---------------------9-----|
|--------------------------|----------------9----9-9---|
|--------------------------|----------------9h11---9h11|
|--------------------------|---------------------------|

(Electric)
|--------------------------|---------------------------|
|--------------------------|---------------------------|
|------------------9-------|--------------------9------|
|-9-----------9----9--9----|--------------9-----9-9----|
|-9h11--------9h11----9h11-|--------------9h11----9h11-|
|-0------------------------|-11------------------------|

|--------------------------|---------------------------|
|--------------------------|---------------------------|
|------------------9-------|---------------------------|
|-9-----------9----9--9----|---------------------------|
|-9h11--------9h11----9h11-|-----7/97-----------------|
|-0------------------------|-11----------11------------|

Verse:
======

I dont know exactly how acoustic guitar plays it.
You can play fig 1a or fig 1b or both.

Fig 1A                       Fig 1B (with capo in 2nd fret)
|-0--0-0-0-0-|-0-0-0-0-0-0-| |------------|-------------|
|-5--5-5-5-5-|-5-5-5-5-5-5-| |-3--3-3-3-3-|-3-3-3-3-3-3-|
|-4--4-4-4-4-|-2-2-2-2-2-2-| |-2--2-2-2-2-|-0-0-0-0-0-0-|
|-2--2-2-2-2-|-2-2-2-2-2-2-| |-0--0-0-0-0-|-0-0-0-0-0-0-|
|-2--2-2-2-2-|-0-0-0-0-0-0-| |------------|-x-x-x-x-x-x-|
|-0--0-0-0-0-|-------------| |------------|-3-3-3-3-3-3-|

**Electric guitar** plays some stuff like the intro during verses.

Pre-chorus:  (todo se me escapa, un paso mas alla...)
===========

E - A - C#m - B


Chorus: (Fuera de mi, en el umbreal...)
E - A - C#m - B


Play
verse
Pre-chorus
and chorus again

Interlude: (solte los lazos que me atan...)
==========
|-0-0-0-0-0-0-0-0-|-0-0-0-0-0-0-0-0--|
|-0-0-0-0-0-0-0-0-|-0-0-0-0-0-0-0-0--|
|-6-6-6-6-6-6-6-6-|-8-8-8-8-8-8-8-8--|
|-7-7-7-7-7-7-7-7-|-9-9-9-9-9-9-9-9--|
|-7-7-7-7-7-7-7-7-|-9-9-9-9-9-9-9-9--|
|-5-5-5-5-5-5-5-5-|-7-7-7-7-7-7-7-7--|


Solo:
=====

acoustic:
E                            A
electric:
|--------------------------|---------------------------|
|-/5---------------4--5--7-|---9-----------------------|
|--------------------------|--------------8h9p8----4---|
|--------------------------|---------------------------|
|--------------------------|---------------------------|
|--------------------------|---------------------------|

  E                          A                          (E)
|--------------------------|---------------------------|----|
|--------------------------|---------------------------|----|
|--4-/6-4-----------------|---------6b--r--2----------|----|
|------------4/-6--4-------|---------------------------|----|
|--------------------------|--4------------------------|----|
|--------------------------|-------------------3b--r---|-0--|

Verse:
(cuando el dia se agoto...)
play this                     or this with capo
|-0------0-0-|-0-------0-0-| |------------|-------------|
|-5------5-5-|-5-------5-5-| |-3------3-3-|-3-------3-3-|
|-4------4-4-|-2-------2-2-| |-2------2-2-|-0-------3-0-|
|-2------2-2-|-2-------2-2-| |-0------0-0-|-0-------0-0-|
|-2------2-2-|-0-------0-0-| |------------|-x-------x-x-|
|-0------0-0-|-------------| |------------|-3-------3-3-|

when lyrics say
regresarle pasos al camino, play fill 1
Fill 1 (with slide)
|--4//54--2--p-0------|
|--------------------------|
|--------------------------|
|--------------------------|
|--------------------------|
|--------------------------|


Play chorus
(sin necesidad de volver)play
fill 2
|-11/12-11--9---7----------|
|-------------------7------|
|--------------------------|
|--------------------------|
|--------------------------|
|--------------------------|

Interlude twice

and last solo/outro:
  E                          A
|--------------------------|---------------------------|
|-/5---------------4--5--7-|---9-----------------------|
|--------------------------|--------------8h9p8----4---|
|--------------------------|---------------------------|
|--------------------------|---------------------------|
|--------------------------|---------------------------|

  C#m                        B
|--------------------------|---------I think-----------|
|--------------------------|-------this is played------|
|--4-/6-4-----------------|-------by another gtr.-----|
|------------4/-6--4-------|-------------2h4-----2h4-2-|
|--------------------------|-2-------2h4-----2h4-------|
|--------------------------|---------------------------|

  E                          A           C             E
|-11/1211-----------------|--------------------------|------|
|---------12--12/1412---9-|/109--------6/76--5-***-|(5)---|
|--------------------------|-------6-/9-----------(5)-|------|
|--------------------------|--------------------------|------|
|--------------------------|--------------------------|------|
|--------------------------|--------------------------|------|

*** move slide to make strings vibrate.

tabbed by Francisco Barros ([email protected])
comments and questions are welcomed

Fuente original: LaCuerda
Colaborador original: Juan Albo [ Alpez ]
Aviso: Este fichero es trabajo propio de su transcriptor y representa su interpretación personal de la canción. El material contenido en esta página es para exclusivo uso privado, por lo que se prohibe su reproducción o retransmisión, así como su uso para fines comerciales.

Califica esta canción


Comentarios en Facebook