Enviado por:
Anonimo

La Ley, Fuera De Mi

Transcription: Gerardo Robles R.
E-Mail: [email protected]

* Intro:  E  A
  
  Riff1: 
         E-|-------------------------------------------------------|
	B-|-------------------------------------------------------|
	G-|--------------4-------------------4--------------------|
	D-|---------4/6-----4/6---------4/6-----4/6---------------|
	A-|----------------------7-------------------4------------|
	E-|-------------------------------------------------------|

* Verso:  E  A

* Choro: E  A  C#m  B

* Bridge: A B Riff2

  Riff2:
	E-|-------------------------------------------------------|
	B-|----0-0/5----4-5--7--9-9----5-4------------------------|
	G-|---------------------------------4-4/6------1/4--------|
	D-|-------------------------------------------------------|
	A-|-------------------------------------------------------|
	E-|-------------------------------------------------------|

* Solo :
	E-|--------------------------------------------------------|
	B-|-0-0/5----4-5--7--9-9----5-4----------------------------|
	G-|------------------------------4-4/6------1/4------1/2/1-|
	D-|--------------------------------------------------------|
	A-|--------------------------------------------------------|
	E-|--------------------------------------------------------|

	E-|---11/12--2----7-7/9-7-----4--5--4----------32-0--0----|
	B-|-------------------------------------2--5---------------|
	G-|--------------------------------------------------------|
	D-|--------------------------------------------------------|
	A-|--------------------------------------------------------|
	E-|--------------------------------------------------------|

--------------------------------------------------------------------

* INTRO:  E  A   Riff1 x2

* VERSO:
E                         A
Lentamente desvanezco y uso el viento de pretexto...
E                      A      
mi cabeza rueda en la escalera

* CORO:
       E               A     E              A
Y digo; todo se me escapa, .......... mas allá
        E       A
Fuera de mí, ....... en otro mundo
    C#m             B
sin necesidad de volver                  
 

Transcripción: Gerardo Robles R.
Monterrey, Nuevo León, México
Orgullosamente regio Wey

Fuente original: LaCuerda
Colaborador original: Jesús Gerardo Robles Rivera [[email protected]]
Aviso: Este fichero es trabajo propio de su transcriptor y representa su interpretación personal de la canción. El material contenido en esta página es para exclusivo uso privado, por lo que se prohibe su reproducción o retransmisión, así como su uso para fines comerciales.

Califica esta canción


Comentarios en Facebook