Enviado por:
Anonimo

La Ley, Eternidad

Imprimir
El bajo de esta canción es bien cool. Tiene un solo de
bajo funky bien apero!

La canción va así:

El intro de la canción es solo guitarra y batería. 
El bajo entra cuando Beto Comienza a cantar.

RIFF 1:

G |---------------------------------------------------|
D |-----------------------2--2--2-2--2--2--2-2--------|
A |-2--2--2-2--5--5--5-5------------------------------|
E |---------------------------------------------------|

ESTE RIFF SE REPITE DURANTE EL VERSO COMPLETO Y
LUEGO VA ESTO:

RIFF 2:

G |----9-9---9------9-9-------------------------------|
D |---------------------------------------------------|
A |-7------7---7-7------7-----------------------------|
E |---------------------------------------------------|
    T  P P T P T T  P P T

ESTO SE REPITE 2 VECES DESPUÉS DE TOCAR EL VERSO.
LOS COROS VAN IGUAL QUE LOS VERSOS.

LA CANCIÓN ES MUY FÁCIL, SOLO HAY QUE TOMARLE EL RITMO 
Y ESO ES TODO.

Fuente original: LaCuerda
Colaborador original: Oliver Dominguez =============================== www.atame.org =============================== Este fichero es trabajo propio de su transcriptor y representa su interpretación personal de la canción. El usuario se compromete a utilizar este material únicamente para su aprendizaje y estudio personal. Para poder incluir este fichero en otro sitio Web, es necesario mencionar el origen del mismo [www.atame.org]
Aviso: Este fichero es trabajo propio de su transcriptor y representa su interpretación personal de la canción. El material contenido en esta página es para exclusivo uso privado, por lo que se prohibe su reproducción o retransmisión, así como su uso para fines comerciales.

Califica esta canción


Comentarios en Facebook