Enviado por:
Anonimo

La Ley, En Casa

Imprimir
Hola de nuevo, no se olvidan del capo antes de tocar.

Usar Capo en el 1° traste.

Intro:

 
                  D               Em              D                 Em
e--------------------------------------------------------------------------| 
B--------------------------------------------------------------------------| 
G--------------------------------------------2h4--2----4-4---7-4---7/9-----| 
D------------2h4-------------------------5-5-------------------------------| 
A-----5-5---------5----2-2--5-2--5/7---------------------------------------|
E--------------------------------------------------------------------------|

                 D                 Em                 D                 Em
e---------------------------------------------------------------10-10---12-|
B--------------------------------------8--10-8--10/12-10--12-12-------12---|
G--9-9---11h12--11/7-7------------7h9--------------------------------------|
D-----------------------9-9-12-9-------------------------------------------|
A--------------------------------------------------------------------------|
E--------------------------------------------------------------------------|


D              Em
Te invito a pasear
D               Em
Te invito a volar
D                 Em
En mi vida hay soledad
D               Em
Y en tus ojos poesía

CORO

C               G
Y si el avión se va
C               Em
Se va lo que se va
D                 Em
En casa yo te espero
D               Em
En casa yo estaré

D                Em
En tiempos demenciales
D            Em
Empiezo a soñar
D              Em
Imagino tempestades
D              Em
Y dibujo profecías

CORO

C                G
Y si el amor se va
C               G
Será lo que será
D                 Em
En casa yo te espero
D               Em
En casa yo estaré
D                Em
En casa yo te espero
D             Em
y te acurrucaré


Am                     C
Hay un lapso que me abraza
Am                 Em
y me atrapa al regresar
G                    F
me desprendo de tu mano
        Am
y me voy amándote
  F
más y más
Am          C          Em
buscándote en donde estés 

SOLO
      Em                      D           Em           D

e--------------------------------------------------------------------|
B------------------------------------------------------7-7--8-8--~10-|
G----7h9--7h9h7------------------------------------7-9---------------|
D----------------9-7----7h9--~7----9h7--9------7-9-------------------|
A--------------------10-------------------7--------------------------|
E--------------------------------------------------------------------|

            Em                 D                        Em                             C

e-----7--10-7----14/11--11/5---5----------------------------------------7----------------|
B--10--------------------------------3--5-5-3----------------------7-10---10-8-7-------8-|
G----------------------------------4-----------4--2-----------7-9----------------9-7-----|
D----------------------------------------------------2--5h2---------------------------9--|
A----------------------------------------------------------------------------------------|
E----------------------------------------------------------------------------------------|


C                  G
Y si el avión se va
C               Em
Será lo que se va
D                  Em
En casa yo te espero
D                Em
En casa yo estaré
D                  Em
En casa yo te espero
D              Em
Y te extrañaré

*Guitarra repite*
e-------------------------|
B-------------------------|
G-------------------------|
D---6-6--7-6--6-6--7-6-4--|
A-------------------------|
E-------------------------|

*Final*
e--------11-11---|
B---14-11--------|
G----------------|
D----------------|
A----------------|
E----------------|

Si no tienen capo traste entonces usen la conversion de acordes....

D  => D#
Em => Fm
C  => C#
G  => G#
Am => A#m
F  => F#

Y para los tabs del Intro y el Solo, nada más aumentele 1 unidad 
a cada numero (si ven 5 toquen 6....etc).  

Saludos a mi pata David y a mi chiquita Kiyomi-Chan!

Fuente original: LaCuerda
Colaborador original: M. Daniel Francisco P. [[email protected]]
Aviso: Este fichero es trabajo propio de su transcriptor y representa su interpretación personal de la canción. El material contenido en esta página es para exclusivo uso privado, por lo que se prohibe su reproducción o retransmisión, así como su uso para fines comerciales.

Califica esta canción


Comentarios en Facebook