Enviado por:
Anonimo

La Ley, En Casa

Imprimir
Esta canción puede ser tocada con dos guitarras una para los solos y la otra en el acompañamiento.
Nota: la guitarra que lleva el acompañamiento debe usar capo trasto en el primer traste, 
los solos son sin capo.

Intro:
D   Em (acompañamiento)

e|---------------------------------------------|
B|---------------------------------------------|
G|---------------------------------------------|
D|-------------------------3---6h8—8/10--8-----|
A|----6---8--6----3-6--3-6---------------------|
E|---6---8-------------------------------------|

e|---------------------------------------------------------|
B|---1h4—4p1---4/6-----6h8—8h9---8/3---1h4--4p1--—4/6------|
G|---------------------------------------------------------|
D|---------------------------------------------------------|
A|---------------------------------------------------------|
E|---------------------------------------------------------|

e|---4-6---6/8---6------6h8---11--11--8---13--------|
B|--------------------------------------------------|
G|--------------------------------------------------|
D|--------------------------------------------------|
A|--------------------------------------------------|
E|--------------------------------------------------|
 

D              Em
Te invito a pasear
D              Em  
Te invito a volar
D                  Em 
En  mi vida hay soledad
D              Em
Y en tus ojos poesía


C               Em
Y si el amor se va
C               Em
Se va lo que se va
D               Em   
En casa yo te espero
D              Em
En casa yo estaré

D                  Em
En tiempos demenciales
D            Em
Empiezo a soñar
D             Em
Imagino tempestades
D              Em
Y dibujo profecías


C               Em 
Y si el amor se va
C             Em
Será lo que será
D               Em
En casa yo te espero
D             Em      
En casa yo estaré
D              Em
En casa yo te espero
D            Em
Y te acurrucare


Am                   C
Hay un lapso que me abraza
Am                  Em
Y me atrapa al regresar
G                   Am
Me desprendo de tu mano
           C         Am         Em             
Y me voy amándote mas y mas buscándote
C            Em
En donde estés


Solo:
D   Em
e|--------------------------------------------|
B|--4h6—4-6---6-------------------------------|
G|----------5----1--3h5--3—3p1---3—3h5--------|
D|---------------------------------------3----|
A|--------------------------------------------|
E|--------------------------------------------|


e|-----------3--3-4—4h6—6p8--11--8----13p11/6----|
B|------3-6--------------------------------------|
G|--3-5------------------------------------------|
D|-----------------------------------------------|
A|-----------------------------------------------|
E|-----------------------------------------------|


e|-------------------------------------------------4-6-6-8-6-4-3-1-4--|
B|---4h6--6—6p4--------------------------------3-5--------------------|
G|----------------3-3h4--3--1----1---------3-5------------------------|
D|-----------------------------3---3----------------------------------|
A|--------------------------------------------------------------------|
E|--------------------------------------------------------------------|


C               Em 
Y si el amor se va
C             Em
Será lo que será
D               Em
En casa yo te espero
D             Em      
En casa yo estaré
D              Em
En casa yo te espero
D            Em
Y te acurrucare


e|---------------------------------|
B|---------------------------------|
G|---------------------------------| X4 (apagadas con la palma de la mano)
D|---x--x--x---x-x---x-x--x--x-3---|
A|---x--x--x---x-x---x-x--x--x-3---|
E|---x--x--x---x-x---x-x--x--x-0---|

Durante el rasgueo anterior:

e|-------------------------------13--------------------------|
B|--8h10p8-6------------------6-----12-----------------------|
G|------------8h10----------------------12-10-12-10-12p10/8--|
D|-----------------8-6---------------------------------------|
A|---------------------6h8-----------------------------------|
E|-----------------------------------------------------------|


En esta parte es solo el movimiento  de los dedos índice y meñique,
el anular y medio se quedan en los trastes 8 respectivamente.

e|--------------------------|
B|--------------------------|
G|--------------------------| X7
D|--7-7-8-7---5-5--9-8--5---|
A|--8-8-8-8---8-8--8-8--8---|
E|--8-8-8-8---8-8--8-8--8---|

Durante este:

e|--------------13--------------------------------|
B|--(10)--6--10--------8h10p8--6------------------|
G|----------------------------------4h6p8-6p4--4--|
D|------------------------------------------------|
A|------------------------------------------------|
E|------------------------------------------------|

e|----------------------------------------13---13-13---|
B|---12p8--8-8-----------------------8/12----12--------|
G|--------------8-6—8/10----8p6------------------------|
D|------------------------------6-3--------------------|
A|-----------------------------------------------------|
E|-----------------------------------------------------|

Es todo les sirva por lo menos de guía para ubicarse
  Arriba el mejor grupo de rock  ...por supuesto LA LEY.

Fuente original: LaCuerda
Colaborador original: Angel Ivan Molina Guaty [[email protected]]
Aviso: Este fichero es trabajo propio de su transcriptor y representa su interpretación personal de la canción. El material contenido en esta página es para exclusivo uso privado, por lo que se prohibe su reproducción o retransmisión, así como su uso para fines comerciales.

Califica esta canción


Comentarios en Facebook