Enviado por:
Anonimo

La Ley, El Duelo (unplugged)

Em esta rola el bajo esta muy facil, solo tienes que
escucharla un par de veces para agarrar bien los tiempos...


 En las estrofas 1 y 2, el bajo acompaña con la tonica y dura 4 tiempos...

  Sin dolor...
  G     D      Am     C     G     Bm     C     Am  
G|------------|------------|------------|------------|
D|------------|------------|------------|------------|
A|------5--5--|-----2-3--3-|------2--2--|3--3--------|
E|3--3--------|5-5-5-------|3--3--------|------5--5--|
 *          2 veces        *        2 veces          *

  Entrada de batería...
  Em                        C 
G|------------|------------|------------|------------|
D|------------|------------|------------|------------|
A|19s7777-5h7775h777-5h7775|------------|-----------5|
E|------------|------------|8-88-7h8-88-7h8-88-7h888-|
 *                      2 veces                      *
  Coro
  G     D      Am    C 
G|------------|------------|------------|------------|
D|5--5--------|------------|  Así hasta que termine  |
A|------5-----|------3-3-3-|------------|------------|
E|---------7--|5-5-5-------|------------|------------|


 Dudas, preguntas o comentarios escribe a: [email protected]

Fuente original: LaCuerda
Colaborador original: Israel Sánchez Padilla [[email protected]]
Aviso: Este fichero es trabajo propio de su transcriptor y representa su interpretación personal de la canción. El material contenido en esta página es para exclusivo uso privado, por lo que se prohibe su reproducción o retransmisión, así como su uso para fines comerciales.

Califica esta canción


Comentarios en Facebook