Enviado por:
Anonimo

La Ley, El Duelo (unplugged)

Intro

E—-0----------------------------------------------------------
B—--0---------------------------------------------------------
G—---0-------------------------------------0/2----------------
D—----2----4-5-4-2--------------------0--2-------2/4----------
A—-----2-----------0/2-0--2--3—-2---3-------------------------
E—------0-----------------------------------------------------


     C      Em        C        Em       C



E-----------------------------------------------------
B-------------------3/5—-3--0-1---3-3/5—-3--0-1-------
G—--------0—-2-4-----------—------------—-------------
D-0-2—-4----------------------------------------------
A-----------------------------------------------------
E-----------------------------------------------------

Em
como una lagrima de fe sobre tu piel
C
olvide la grieta que dejo tu amor
Em
pero ese instinto taurino de tu ser
C
me obligo a azotarte  huuuuu

tiernamente............


 G     D           Am      C
Sin dolor no te haces feliz
E--------------------------------------------------------
B-------------1-0—3/5-3-1-0-1—3/5-3-1-0-1-0—-------------
G-----------0---------------------------------2----------
D-------0/2--------------------------------------2/3—-2--
A—-2—3---------------------------------------------------
E--------------------------------------------------------

 G     D           Am       C
Sin dolor no te haces feliz
E--------------------------------------
B---3/5—-3—-1—-0—-1—-0-----------------
G------------------------2—-0----------
D------------------------------0/2—-0—-
A--------------------------------------
E--------------------------------------

G D Am C G D Am  C
Sin amooooooooor
E--------------------------------------
B--------------1—0---------------------
G------------0-------------------------
D-------0/2----------0-4-2-0-2-0-------
A---2-3---------------------------3—2—-
E--------------------------------------

           C
No sufras mas ...

E---------------------12------------------------------
B------------------------12---------------------------
G-----------------------------------------------------
D--------12/9----------------------12/9--------12/9---
A---9-10---------9-10---------9-10---------9-10-------
E-----------------------------------------------------

Aqui comienza a cantar Ely Guerra

Em
Toda esa noche, provocaste ver en mi

E—-15—-14—-12---
B---------------
C
Lo que a nadie muestro, en la intimidad
E-----------------------------------
B-----------------------------------
G------------0----------------------
D---0—-2---4------2/4---2-----------
A---------------------------0/2-----
E-----------------------------------
Em
Pero esa forma de mirada que hab�en ti
E-----------------------------------------------------
B---------------------------3/4---3-------------------
G---0---2---2---2/4—-2—-0--------------4—-5—-4—-2—-0—-
D-----------------------------------------------------
A-----------------------------------------------------
E-----------------------------------------------------
                                      C
Me obligo a matarte   huuuuuuu  lentamente




G      D           Am        C
Sin dolor no te haces feliz
E---------------------------------------
B-------0-1-0---------------------------
G—-0-2----------2-0---------------------
D---------------------0/2-0-------------
A---------------------------------------
E---------------------------------------
G      D           Am        C
Sin dolor no te haces feliz
G      D           Am        C    G      D           Am        C
Sin amoooooooor
E---------------------------------------
B-------0-1-0---------------------------
G—-0-2----------2-0---------------------
D---------------------0/2-0-------------
A---------------------------------------
E---------------------------------------

Tiernamente

G      D           Am        C
sin dolor no te haces feliz
E---------------------------------------
B-------0-1-0---------------------------
G—-0-2----------2-0---------------------
D---------------------0/2-0-------------
A---------------------------------------
E---------------------------------------
G      D           Am        C
sin dolor no te haces feliz
G      D           Am        C    G      D           Am        C
sin amooooooooor
E--------------------------------
B---3/5-3---1---0------1---0-----
G-------------------2------------
D--------------------------------
A--------------------------------
E--------------------------------





Aqu�e hace una pausa y luego comienza la bater�
Todo lo que sigue es vastante rᰩdo incluyendo los
acordes:  Em   y   C  que se acent��.

       (min:3.57 aprox.)

         Em          C

E----------------------------------------------------------
B--3/55555555--78888--101212--7787--7787--7787--7787/5/3-3-
G----------------------------------------------------------
D----------------------------------------------------------
A----------------------------------------------------------
E----------------------------------------------------------
G      D           Am        C
Sin dolor no te haces feliz
E-------0------------------------------
B----------3--0-2-0-2-0-2-0-2-0--------
G--2-0-----------------------------2-0-
D--------------------------------------
A--------------------------------------
E--------------------------------------
G      D           Am        C
Sin dolor no te haces feliz
E-----0--------------------------------
B--------3--0-2-0-2-0-2-0-2-0----------
G----------------------------------2-0-
D--------------------------------------
A--------------------------------------
E--------------------------------------
G      D           Am        C    G      D           Am        C
Sin amooooooooor
E-------0-------------------------------
B----------3--0-2-0-2-0-2-0-2-0---------
G-----------------------------------2-0-
D---------------------------------------
A---------------------------------------
E---------------------------------------

Tiernamente
E-------------------------------
B--0-1-1--1-0-------------------
G-------------2-0---------------
D-------------------------------
A-------------------------------
E-------------------------------

G      D           Am        C
Sin dolor no te haces feliz
E-------0------------------------------
B----------3--0-2-0-2-0-2-0-2-0--------
G--2-0-----------------------------2-0-
D--------------------------------------
A--------------------------------------
E--------------------------------------
G      D           Am        C
Sin dolor no te haces feliz
E-----0--------------------------------
B--------3--0-2-0-2-0-2-0-2-0----------
G----------------------------------2-0-
D--------------------------------------
A--------------------------------------
E--------------------------------------
G      D           Am        C    G      D           Am        C
Sin amooooooooor
E-------0-------------------------------
B----------3--0-2-0-2-0-2-0-2-0---------
G-----------------------------------2-0-
D---------------------------------------
A---------------------------------------
E---------------------------------------
              C
No sufres mas...
E-----------------------------------
B------3----3----3----3----3--------
G----—--0----0----0----0------------
D--------4----4----4----4-----------
A-----------------------------------
E-----------------------------------

Fuente original: LaCuerda
Colaborador original: Jose Salas [[email protected]]
Aviso: Este fichero es trabajo propio de su transcriptor y representa su interpretación personal de la canción. El material contenido en esta página es para exclusivo uso privado, por lo que se prohibe su reproducción o retransmisión, así como su uso para fines comerciales.

Califica esta canción


Comentarios en Facebook