Enviado por:
Anonimo

La Ley, El Duelo

Qué tal todos!!! aquí está el TAB completo (versión original) de esta rola,
y viendo que todos enviaban sóla la tablatura de la versión Unplugged, pues 
entonces tomé la inicaitiva de completar las transcripcionesd de esta rola.

Disfrutenla ya que la hice para todos ustedes, hasta la vista!!!!



Intro:

   Em             C                  Em             C

e--0--------------0----------0-------0--------------0---------0-----|
B--0--------------1~-----------1~----0--------------0-----------1~--|
G--0--------------0------------------0--------------0---------------|
D--2~-------------2~--2--------------2~-------------2~--2-----------|
A--2~--2-4-2~-----3~----3~-----------2~--2-4-2~-----3~----3~--------|
E--X--------------X------------------X--------------X---------------|

                                                Uouououoooo...!!! 

RiffS Verso:


    Em Riff                    C Riff

e-------------|            e-------------|
B-------------|            B-------------|
G-------------|            G-------------|
D------2------|  x 4       D------2------|  x 4
A----2---2----|            A----3---3----|
E--0-------0--|            E--3-------2--|


Verso 1:

Em    
  Como una lágrima de fé sobre tu piel
C 
  olvidé la grieta, que dejó tu amor,
Em  
  pero ese instinto taurino de tu ser
          C
  me obligó a azotarte, tiernamente.


Coro:

G                D           Am        C
  Sin dolor no, no, no te haces feliz.
G                D           Am        C
  sin dolor no, no, no te haces feliz.
        G  D  Am  C  G  D  Am  C
  sin amoooooooooooooooooooooooor....,
             Riff 1
  no sufras más.


Riff 1:

   Em             C                  

e--0--------------0----------0-------|
B--0--------------1~-----------1~----|
G--0--------------0------------------|
D--2~-------------2~--2--------------|
A--2~--2-4-2~-----3~----3~-----------|
E--X--------------X------------------|



Verso 2:

  Toda esa noche provocaste ver en mí
  lo que nadie muestra en la intimidad,
  pero ese tipo de mirada que hay en ti
  me obligó a matarte, lentamente.



Coro (2)



Solo:

   G              D                     Am             C

e--------------------------------------------------------------------------|       
B--------------------10-10h12-12-12~----------------------10-10h12-12-12~--|       
G--12-12-12-12-12h14--------------------12-12-12-12-12h14------------------|       
D--------------------------------------------------------------------------| x 2  
A--------------------------------------------------------------------------|      
E--------------------------------------------------------------------------|       

   G               D                    Am              C

e--------------------------------------------------------------------------|
B--12-12-12-12-12~-12-13-13h15-15-15----12-12-12-12-12~-12-13-13h15-15-15--|
G--------------------------------------------------------------------------|
D--------------------------------------------------------------------------| 
A--------------------------------------------------------------------------|
E--------------------------------------------------------------------------|

   G               D                  Am              C  
    
e--------------------------------------------------------------------------|
B--12-12-12-12-12~-12-13-13h15-15-15--13-15-13-15-13~-12-13-12-13-12~------|
G--------------------------------------------------------------------------|
D--------------------------------------------------------------------------|
A--------------------------------------------------------------------------|
E--------------------------------------------------------------------------|

 
             Outro
  No sufras más.


Outro:


  Em             C                  

e--0----------------------0----------0-----------0---|
B--0----------------0-----1~-----------1~--------0---|
G--0------------------0---0----------------------0---|
D--2~----------0----------2~--2------------------2~--|
A--2~--2-4-2~----2~-------3~----3~---------------2~--|
E--X----------------------X----------------------x---|

                                 Ououoooooooooooo... ahhhhhh!!!




Dudas o comentarios, enviarlos a mi E-mail, O.K.

Fuente original: LaCuerda
Colaborador original: Ramón Edgardo Vásquez Florentino [[email protected]]
Aviso: Este fichero es trabajo propio de su transcriptor y representa su interpretación personal de la canción. El material contenido en esta página es para exclusivo uso privado, por lo que se prohibe su reproducción o retransmisión, así como su uso para fines comerciales.

Califica esta canción


Comentarios en Facebook