Enviado por:
Anonimo

La Ley, El Duelo

E.CABALLERO


INTRO

G-------5-5-2---------5-5-2-------------
D-2-2-2-------2---2-2-------2-----------
A---------------------------------------
E---------------------------------------

G-----5-5-----5-5-5-----5-5-----5-5-5---
D-2-2-----2-2-------2-2-----2-2---------
A---------------------------------------
E---------------------------------------


CORO

SIN DOLOR NO TE...

G------77-7-------5-5-------------------
D-55-5------77-7------------------------
A---------------------------------------
E---------------------------------------

SIN AMOOOOOOOOOR...

G----------22--5-5-5---------22--5-5-5--
D--55--00------------55--00-------------
A---------------------------------------
E---------------------------------------
REPETIR LO MISMO EN LA PARTE RAPIDA
HASTA EL FINAL

         NO SUFRES MAS......
G---------------------------------------
D---------------------5-----------------
A--7------------------------------------
E---------------------------------------

Fuente original: LaCuerda
Colaborador original: eduardo caballero [[email protected]]
Aviso: Este fichero es trabajo propio de su transcriptor y representa su interpretación personal de la canción. El material contenido en esta página es para exclusivo uso privado, por lo que se prohibe su reproducción o retransmisión, así como su uso para fines comerciales.

Califica esta canción


Comentarios en Facebook