Enviado por:
Anonimo

La Ley, El Duelo

Este Archivo está basado en la trancripción de Manuel Ferreira Guarneros (un saludo!)
para el Bajo de esta cancion. Hice algunos ajustes en los tiempos de las notas. Tambien
Le faltaban algunas notas y le puse un poco de orden.
Si siguen la cancion original es mas facil entender la transcripción.
**************************
EL DUELO
Bode, Cuevas
Invisible, 1995
La Ley 
**************************

BASS      Introd:
RIFF 1    Em  - C    X 2

        
RIFF 2    Em
A)  Como una lagrima de fe sobre tu piel
    C  
    olvide la grieta, que dejo tu amor
RIFF 2    Em 
    pero ese instinto taurino de tu ser
           C  
    me obligo a azotarte, tiernamente


RIFF 3    G     D           Am    C  
B)  Sin dolor no te haces feliz
    G     D           Am    C  
    sin dolor no te haces feliz
	    G    - Sim - C      G    - D   - Am  - C  
    sin amooooor,
              Em  - C  
    no sufras mas


RIFF 2    Em
A) Toda esa noche provocaste ver en mi
    C  
   lo que nadie muestra en la intimidad
RIFF 2    Em
   pero ese tipo de mirada que hay en ti
    C  
   me obligo a matarte, lentamente


RIFF 3    G     D           Am    C  
B)  Sin dolor no te haces feliz
    G     D           Am    C  
    sin dolor no te haces feliz
	    G    - Sim - C      G    - D   - Am  - C  
    sin amooooor,
              Em  - C  
    no sufras mas

RIFF 1    Em  - C    
   No sufras mas



 
BASS (El Duelo)

RIFF 1 

G|---|-------|-------|-------|-------|-------|-------|-------|-------|-
D|---|-------|-------|-------|-------|-------0-------|-------|-------|-
A|---|-------|-------|-------|-0---2-3-3-----|-3-----|-------3-2-----|-
E|---0-0-----|-------|-------3-------|-------|-------|-------|-----3-0-



RIFF 2

G|---|-------|-------|-------|-----0-|---2-0-|-------|-------|-------|--
D|---|-------|-------|-----0-2-2-----|-------|---2-0-|-------|-------|--
A|---|-------|-----0-2-2-----|-------3-------3-------3---3-2-3-------|--
E|---0-0---2-0-3-----|-------|-------|-------|-------|-------|---3-2-|--



RIFF 3

G|---|-------|-------|-------|-------|-------|-------|-------|-------|--
D|---5-4-----0-------|-------|-------5-4-----0-------|-------|-------|--
A|---|-------|-0-----0-0---2-3-3-----|-------|-0-----0-0---2-3-3-----|--
E|---|-------|-------|-------|-----3-|-------|-------|-------|-----3-|--

G|---|-------|-------|-------|-------|-------|-------|-------|-------|-
D|---|-------|-------|-------|-------5-4-----0-------|-------|-------|-
A|---|-------2-2-22--3-3-33--2-2-22--|-------|-0-----0-0---2-3-3-----|-
E|---3-3-33--|-------|-------|-------|-------|-------|-------|-----3-|-


----------
Transcrito por Victor Araujo, 2001, Mexico
[email protected]

Fuente original: LaCuerda
Colaborador original: Victor Araujo [[email protected]]
Aviso: Este fichero es trabajo propio de su transcriptor y representa su interpretación personal de la canción. El material contenido en esta página es para exclusivo uso privado, por lo que se prohibe su reproducción o retransmisión, así como su uso para fines comerciales.

Califica esta canción


Comentarios en Facebook